  0
SECTION
  2
HEADER
  9
$ACADVER
  1
AC1009
  9
$DWGCODEPAGE
  3
dos932
  9
$EXTMIN
 10
0.0
 20
0.0
 30
0.0
  9
$EXTMAX
 10
297.0
 20
210.0
 30
0.0
  9
$LIMMIN
 10
0.0
 20
0.0
  9
$LIMMAX
 10
297.0
 20
210.0
  9
$LTSCALE
 40
1.0
  9
$PDMODE
 70
     0
  0
ENDSEC
  0
SECTION
  2
TABLES
  0
TABLE
  2
VPORT
 70
     1
  0
VPORT
  2
*ACTIVE
 70
     0
 10
0.0
 20
0.0
 11
1.0
 21
1.0
 12
148.5
 22
105.0
 13
0.0
 23
0.0
 14
10.0
 24
10.0
 15
10.0
 25
10.0
 16
0.0
 26
0.0
 36
1.0
 17
0.0
 27
0.0
 37
0.0
 40
297.0
 41
1.414285714
 42
50.0
 43
0.0
 44
0.0
 50
0.0
 51
0.0
 71
     0
 72
  1000
 73
     1
 74
     3
 75
     0
 76
     0
 77
     0
 78
     0
  0
ENDTAB
  0
TABLE
  2
LTYPE
 70
     3
  0
LTYPE
  2
CONTINUOUS
 70
    64
  3
Solid line
 72
    65
 73
     0
 40
0.0
  0
LTYPE
  2
LTYPE1
 70
    64
  3
CENTER
 72
    65
 73
     4
 40
7.0
 49
4.9
 49
-0.7
 49
0.7
 49
-0.7
  0
LTYPE
  2
LTYPE2
 70
    64
  3
HIDDEN
 72
    65
 73
     2
 40
1.2
 49
0.72
 49
-0.48
  0
ENDTAB
  0
TABLE
  2
LAYER
 70
   128
  0
LAYER
  2
0
 70
     0
 62
     7
  6
CONTINUOUS
  0
LAYER
  2
1
 70
     0
 62
     7
  6
CONTINUOUS
  0
LAYER
  2
2
 70
     0
 62
     7
  6
CONTINUOUS
  0
LAYER
  2
3
 70
     0
 62
     7
  6
CONTINUOUS
  0
LAYER
  2
4
 70
     0
 62
     7
  6
CONTINUOUS
  0
LAYER
  2
5
 70
     0
 62
     7
  6
CONTINUOUS
  0
LAYER
  2
6
 70
     0
 62
     7
  6
CONTINUOUS
  0
LAYER
  2
7
 70
     0
 62
     7
  6
CONTINUOUS
  0
LAYER
  2
8
 70
     0
 62
     7
  6
CONTINUOUS
  0
LAYER
  2
9
 70
     0
 62
     7
  6
CONTINUOUS
  0
LAYER
  2
10
 70
     0
 62
     7
  6
CONTINUOUS
  0
LAYER
  2
11
 70
     0
 62
     7
  6
CONTINUOUS
  0
LAYER
  2
12
 70
     0
 62
     7
  6
CONTINUOUS
  0
LAYER
  2
13
 70
     0
 62
     7
  6
CONTINUOUS
  0
LAYER
  2
14
 70
     0
 62
     7
  6
CONTINUOUS
  0
LAYER
  2
15
 70
     0
 62
     7
  6
CONTINUOUS
  0
LAYER
  2
16
 70
     0
 62
     7
  6
CONTINUOUS
  0
LAYER
  2
17
 70
     0
 62
     7
  6
CONTINUOUS
  0
LAYER
  2
18
 70
     0
 62
     7
  6
CONTINUOUS
  0
LAYER
  2
19
 70
     0
 62
     7
  6
CONTINUOUS
  0
LAYER
  2
20
 70
     0
 62
     7
  6
CONTINUOUS
  0
LAYER
  2
128
 70
     0
 62
     7
  6
CONTINUOUS
  0
LAYER
  2
129
 70
     0
 62
     7
  6
CONTINUOUS
  0
LAYER
  2
130
 70
     0
 62
     7
  6
CONTINUOUS
  0
LAYER
  2
131
 70
     0
 62
     7
  6
CONTINUOUS
  0
LAYER
  2
132
 70
     0
 62
     7
  6
CONTINUOUS
  0
LAYER
  2
133
 70
     0
 62
     7
  6
CONTINUOUS
  0
LAYER
  2
134
 70
     0
 62
     7
  6
CONTINUOUS
  0
LAYER
  2
29
 70
     0
 62
     7
  6
CONTINUOUS
  0
LAYER
  2
30
 70
     0
 62
     7
  6
CONTINUOUS
  0
LAYER
  2
31
 70
     0
 62
     7
  6
CONTINUOUS
  0
LAYER
  2
32
 70
     0
 62
     7
  6
CONTINUOUS
  0
LAYER
  2
33
 70
     0
 62
     7
  6
CONTINUOUS
  0
LAYER
  2
34
 70
     0
 62
     7
  6
CONTINUOUS
  0
LAYER
  2
35
 70
     0
 62
     7
  6
CONTINUOUS
  0
LAYER
  2
36
 70
     0
 62
     7
  6
CONTINUOUS
  0
LAYER
  2
37
 70
     0
 62
     7
  6
CONTINUOUS
  0
LAYER
  2
38
 70
     0
 62
     7
  6
CONTINUOUS
  0
LAYER
  2
39
 70
     0
 62
     7
  6
CONTINUOUS
  0
LAYER
  2
40
 70
     0
 62
     7
  6
CONTINUOUS
  0
LAYER
  2
41
 70
     0
 62
     7
  6
CONTINUOUS
  0
LAYER
  2
42
 70
     0
 62
     7
  6
CONTINUOUS
  0
LAYER
  2
43
 70
     0
 62
     7
  6
CONTINUOUS
  0
LAYER
  2
44
 70
     0
 62
     7
  6
CONTINUOUS
  0
LAYER
  2
45
 70
     0
 62
     7
  6
CONTINUOUS
  0
LAYER
  2
46
 70
     0
 62
     7
  6
CONTINUOUS
  0
LAYER
  2
47
 70
     0
 62
     7
  6
CONTINUOUS
  0
LAYER
  2
48
 70
     0
 62
     7
  6
CONTINUOUS
  0
LAYER
  2
49
 70
     0
 62
     7
  6
CONTINUOUS
  0
LAYER
  2
50
 70
     0
 62
     7
  6
CONTINUOUS
  0
LAYER
  2
51
 70
     0
 62
     7
  6
CONTINUOUS
  0
LAYER
  2
52
 70
     0
 62
     7
  6
CONTINUOUS
  0
LAYER
  2
53
 70
     0
 62
     7
  6
CONTINUOUS
  0
LAYER
  2
54
 70
     0
 62
     7
  6
CONTINUOUS
  0
LAYER
  2
55
 70
     0
 62
     7
  6
CONTINUOUS
  0
LAYER
  2
56
 70
     0
 62
     7
  6
CONTINUOUS
  0
LAYER
  2
57
 70
     0
 62
     7
  6
CONTINUOUS
  0
LAYER
  2
58
 70
     0
 62
     7
  6
CONTINUOUS
  0
LAYER
  2
59
 70
     0
 62
     7
  6
CONTINUOUS
  0
LAYER
  2
60
 70
     0
 62
     7
  6
CONTINUOUS
  0
LAYER
  2
61
 70
     0
 62
     7
  6
CONTINUOUS
  0
LAYER
  2
62
 70
     0
 62
     7
  6
CONTINUOUS
  0
LAYER
  2
63
 70
     0
 62
     7
  6
CONTINUOUS
  0
LAYER
  2
64
 70
     0
 62
     7
  6
CONTINUOUS
  0
LAYER
  2
65
 70
     0
 62
     7
  6
CONTINUOUS
  0
LAYER
  2
66
 70
     0
 62
     7
  6
CONTINUOUS
  0
LAYER
  2
67
 70
     0
 62
     7
  6
CONTINUOUS
  0
LAYER
  2
68
 70
     0
 62
     7
  6
CONTINUOUS
  0
LAYER
  2
69
 70
     0
 62
     7
  6
CONTINUOUS
  0
LAYER
  2
70
 70
     0
 62
     7
  6
CONTINUOUS
  0
LAYER
  2
71
 70
     0
 62
     7
  6
CONTINUOUS
  0
LAYER
  2
72
 70
     0
 62
     7
  6
CONTINUOUS
  0
LAYER
  2
73
 70
     0
 62
     7
  6
CONTINUOUS
  0
LAYER
  2
74
 70
     0
 62
     7
  6
CONTINUOUS
  0
LAYER
  2
75
 70
     0
 62
     7
  6
CONTINUOUS
  0
LAYER
  2
76
 70
     0
 62
     7
  6
CONTINUOUS
  0
LAYER
  2
77
 70
     0
 62
     7
  6
CONTINUOUS
  0
LAYER
  2
78
 70
     0
 62
     7
  6
CONTINUOUS
  0
LAYER
  2
79
 70
     0
 62
     7
  6
CONTINUOUS
  0
LAYER
  2
80
 70
     0
 62
     7
  6
CONTINUOUS
  0
LAYER
  2
81
 70
     0
 62
     7
  6
CONTINUOUS
  0
LAYER
  2
82
 70
     0
 62
     7
  6
CONTINUOUS
  0
LAYER
  2
83
 70
     0
 62
     7
  6
CONTINUOUS
  0
LAYER
  2
84
 70
     0
 62
     7
  6
CONTINUOUS
  0
LAYER
  2
85
 70
     0
 62
     7
  6
CONTINUOUS
  0
LAYER
  2
86
 70
     0
 62
     7
  6
CONTINUOUS
  0
LAYER
  2
87
 70
     0
 62
     7
  6
CONTINUOUS
  0
LAYER
  2
88
 70
     0
 62
     7
  6
CONTINUOUS
  0
LAYER
  2
89
 70
     0
 62
     7
  6
CONTINUOUS
  0
LAYER
  2
90
 70
     0
 62
     7
  6
CONTINUOUS
  0
LAYER
  2
91
 70
     0
 62
     7
  6
CONTINUOUS
  0
LAYER
  2
92
 70
     0
 62
     7
  6
CONTINUOUS
  0
LAYER
  2
93
 70
     0
 62
     7
  6
CONTINUOUS
  0
LAYER
  2
94
 70
     0
 62
     7
  6
CONTINUOUS
  0
LAYER
  2
95
 70
     0
 62
     7
  6
CONTINUOUS
  0
LAYER
  2
96
 70
     0
 62
     7
  6
CONTINUOUS
  0
LAYER
  2
97
 70
     0
 62
     7
  6
CONTINUOUS
  0
LAYER
  2
98
 70
     0
 62
     7
  6
CONTINUOUS
  0
LAYER
  2
99
 70
     0
 62
     7
  6
CONTINUOUS
  0
LAYER
  2
100
 70
     0
 62
     7
  6
CONTINUOUS
  0
LAYER
  2
101
 70
     0
 62
     7
  6
CONTINUOUS
  0
LAYER
  2
102
 70
     0
 62
     7
  6
CONTINUOUS
  0
LAYER
  2
103
 70
     0
 62
     7
  6
CONTINUOUS
  0
LAYER
  2
104
 70
     0
 62
     7
  6
CONTINUOUS
  0
LAYER
  2
105
 70
     0
 62
     7
  6
CONTINUOUS
  0
LAYER
  2
106
 70
     0
 62
     7
  6
CONTINUOUS
  0
LAYER
  2
107
 70
     0
 62
     7
  6
CONTINUOUS
  0
LAYER
  2
108
 70
     0
 62
     7
  6
CONTINUOUS
  0
LAYER
  2
109
 70
     0
 62
     7
  6
CONTINUOUS
  0
LAYER
  2
110
 70
     0
 62
     7
  6
CONTINUOUS
  0
LAYER
  2
111
 70
     0
 62
     7
  6
CONTINUOUS
  0
LAYER
  2
112
 70
     0
 62
     7
  6
CONTINUOUS
  0
LAYER
  2
113
 70
     0
 62
     7
  6
CONTINUOUS
  0
LAYER
  2
114
 70
     0
 62
     7
  6
CONTINUOUS
  0
LAYER
  2
115
 70
     0
 62
     7
  6
CONTINUOUS
  0
LAYER
  2
116
 70
     0
 62
     7
  6
CONTINUOUS
  0
LAYER
  2
117
 70
     0
 62
     7
  6
CONTINUOUS
  0
LAYER
  2
118
 70
     0
 62
     7
  6
CONTINUOUS
  0
LAYER
  2
119
 70
     0
 62
     7
  6
CONTINUOUS
  0
LAYER
  2
120
 70
     0
 62
     7
  6
CONTINUOUS
  0
LAYER
  2
121
 70
     0
 62
     7
  6
CONTINUOUS
  0
LAYER
  2
122
 70
     0
 62
     7
  6
CONTINUOUS
  0
LAYER
  2
123
 70
     0
 62
     7
  6
CONTINUOUS
  0
LAYER
  2
124
 70
     0
 62
     7
  6
CONTINUOUS
  0
LAYER
  2
125
 70
     0
 62
     7
  6
CONTINUOUS
  0
LAYER
  2
126
 70
     0
 62
     7
  6
CONTINUOUS
  0
LAYER
  2
127
 70
     0
 62
     7
  6
CONTINUOUS
  0
LAYER
  2
128
 70
     0
 62
     7
  6
CONTINUOUS
  0
ENDTAB
  0
TABLE
  2
STYLE
 70
     3
  0
STYLE
  2
STANDARD
 70
     0
 40
0.0
 41
1.0
 50
0.0
 71
     0
 42
0.2
  3
txt.shx
  4
extfont.shx
  0
STYLE
  2
KANJI0
 70
     0
 40
6.0
 41
0.9
 50
0.0
 71
     0
 42
6.0
  3
txt.shx
  4
extfont.shx
  0
STYLE
  2
KANJI1
 70
     0
 40
6.0
 41
0.5
 50
0.0
 71
     0
 42
6.0
  3
txt.shx
  4
extfont.shx
  0
ENDTAB
  0
TABLE
  2
VIEW
 70
     0
  0
ENDTAB
  0
ENDSEC
  0
SECTION
  2
BLOCKS
  0
ENDSEC
  0
SECTION
  2
ENTITIES
  0
LINE
  8
0
  6
CONTINUOUS
 62
     1
 10
5.0
 20
5.0
 30
0.0
 11
5.0
 21
205.0
 31
0.0
  0
LINE
  8
0
  6
CONTINUOUS
 62
     1
 10
5.0
 20
205.0
 30
0.0
 11
292.0
 21
205.0
 31
0.0
  0
LINE
  8
0
  6
CONTINUOUS
 62
     1
 10
292.0
 20
205.0
 30
0.0
 11
292.0
 21
5.0
 31
0.0
  0
LINE
  8
0
  6
CONTINUOUS
 62
     1
 10
292.0
 20
5.0
 30
0.0
 11
5.0
 21
5.0
 31
0.0
  0
LINE
  8
0
  6
CONTINUOUS
 62
     2
 10
292.0
 20
15.0
 30
0.0
 11
196.0
 21
15.0
 31
0.0
  0
LINE
  8
0
  6
CONTINUOUS
 62
     2
 10
196.0
 20
15.0
 30
0.0
 11
196.0
 21
5.0
 31
0.0
  0
LINE
  8
0
  6
CONTINUOUS
 62
     2
 10
211.0
 20
5.0
 30
0.0
 11
211.0
 21
15.0
 31
0.0
  0
LINE
  8
131
  6
CONTINUOUS
 62
     7
 10
113.0
 20
139.326
 30
0.0
 11
113.5
 21
139.826
 31
0.0
  0
LINE
  8
131
  6
CONTINUOUS
 62
     7
 10
121.0
 20
139.326
 30
0.0
 11
120.5
 21
139.826
 31
0.0
  0
LINE
  8
131
  6
CONTINUOUS
 62
     7
 10
121.0
 20
139.326
 30
0.0
 11
113.0
 21
139.326
 31
0.0
  0
LINE
  8
131
  6
CONTINUOUS
 62
     7
 10
113.5
 20
139.826
 30
0.0
 11
120.5
 21
139.826
 31
0.0
  0
LINE
  8
131
  6
CONTINUOUS
 62
     7
 10
113.0
 20
130.326
 30
0.0
 11
113.5
 21
129.826
 31
0.0
  0
LINE
  8
131
  6
CONTINUOUS
 62
     7
 10
121.0
 20
130.326
 30
0.0
 11
120.5
 21
129.826
 31
0.0
  0
LINE
  8
131
  6
CONTINUOUS
 62
     7
 10
121.0
 20
130.326
 30
0.0
 11
113.0
 21
130.326
 31
0.0
  0
LINE
  8
131
  6
CONTINUOUS
 62
     7
 10
120.5
 20
129.826
 30
0.0
 11
113.5
 21
129.826
 31
0.0
  0
LINE
  8
131
  6
CONTINUOUS
 62
     7
 10
113.0
 20
130.326
 30
0.0
 11
113.0
 21
139.326
 31
0.0
  0
LINE
  8
131
  6
CONTINUOUS
 62
     7
 10
121.0
 20
130.326
 30
0.0
 11
121.0
 21
139.326
 31
0.0
  0
LINE
  8
131
  6
CONTINUOUS
 62
     7
 10
137.0
 20
117.5
 30
0.0
 11
137.5
 21
117.0
 31
0.0
  0
LINE
  8
131
  6
CONTINUOUS
 62
     7
 10
113.0
 20
117.5
 30
0.0
 11
112.5
 21
117.0
 31
0.0
  0
LINE
  8
131
  6
CONTINUOUS
 62
     7
 10
112.5
 20
93.0
 30
0.0
 11
113.0
 21
92.5
 31
0.0
  0
LINE
  8
131
  6
CONTINUOUS
 62
     7
 10
137.0
 20
92.5
 30
0.0
 11
137.5
 21
93.0
 31
0.0
  0
LINE
  8
131
  6
CONTINUOUS
 62
     7
 10
137.0
 20
92.5
 30
0.0
 11
113.0
 21
92.5
 31
0.0
  0
LINE
  8
131
  6
CONTINUOUS
 62
     7
 10
113.0
 20
117.5
 30
0.0
 11
137.0
 21
117.5
 31
0.0
  0
CIRCLE
  8
131
  6
CONTINUOUS
 62
     7
 10
122.0
 20
115.0
 30
0.0
 40
1.0
  0
CIRCLE
  8
131
  6
CONTINUOUS
 62
     7
 10
125.0
 20
115.0
 30
0.0
 40
1.0
  0
CIRCLE
  8
131
  6
CONTINUOUS
 62
     7
 10
128.0
 20
115.0
 30
0.0
 40
1.0
  0
CIRCLE
  8
131
  6
CONTINUOUS
 62
     7
 10
115.0
 20
105.0
 30
0.0
 40
1.0
  0
CIRCLE
  8
131
  6
CONTINUOUS
 62
     7
 10
125.0
 20
95.0
 30
0.0
 40
1.0
  0
CIRCLE
  8
131
  6
CONTINUOUS
 62
     7
 10
135.0
 20
105.0
 30
0.0
 40
1.0
  0
LINE
  8
131
  6
CONTINUOUS
 62
     7
 10
121.5
 20
125.5
 30
0.0
 11
112.5
 21
125.5
 31
0.0
  0
LINE
  8
131
  6
CONTINUOUS
 62
     7
 10
114.2
 20
129.826
 30
0.0
 11
114.0
 21
129.626
 31
0.0
  0
LINE
  8
131
  6
CONTINUOUS
 62
     7
 10
114.0
 20
125.5
 30
0.0
 11
114.0
 21
129.626
 31
0.0
  0
LINE
  8
131
  6
CONTINUOUS
 62
     7
 10
120.0
 20
129.626
 30
0.0
 11
114.0
 21
129.626
 31
0.0
  0
LINE
  8
131
  6
CONTINUOUS
 62
     7
 10
120.0
 20
129.626
 30
0.0
 11
119.8
 21
129.826
 31
0.0
  0
LINE
  8
131
  6
CONTINUOUS
 62
     7
 10
120.0
 20
125.5
 30
0.0
 11
120.0
 21
129.626
 31
0.0
  0
LINE
  8
131
  6
CONTINUOUS
 62
     7
 10
130.599998
 20
89.2
 30
0.0
 11
131.05
 21
89.2
 31
0.0
  0
POLYLINE
  8
131
  6
CONTINUOUS
 62
     7
 66
     1
  0
VERTEX
  8
131
  6
CONTINUOUS
 62
     7
 10
130.2
 20
89.599998
 30
0.0
  0
VERTEX
  8
131
  6
CONTINUOUS
 62
     7
 10
130.202195
 20
89.563814
 30
0.0
  0
VERTEX
  8
131
  6
CONTINUOUS
 62
     7
 10
130.206678
 20
89.527219
 30
0.0
  0
VERTEX
  8
131
  6
CONTINUOUS
 62
     7
 10
130.215292
 20
89.490005
 30
0.0
  0
VERTEX
  8
131
  6
CONTINUOUS
 62
     7
 10
130.228086
 20
89.452769
 30
0.0
  0
VERTEX
  8
131
  6
CONTINUOUS
 62
     7
 10
130.244736
 20
89.416271
 30
0.0
  0
VERTEX
  8
131
  6
CONTINUOUS
 62
     7
 10
130.265205
 20
89.381123
 30
0.0
  0
VERTEX
  8
131
  6
CONTINUOUS
 62
     7
 10
130.289456
 20
89.347898
 30
0.0
  0
VERTEX
  8
131
  6
CONTINUOUS
 62
     7
 10
130.317162
 20
89.317162
 30
0.0
  0
VERTEX
  8
131
  6
CONTINUOUS
 62
     7
 10
130.347898
 20
89.289456
 30
0.0
  0
VERTEX
  8
131
  6
CONTINUOUS
 62
     7
 10
130.381123
 20
89.265205
 30
0.0
  0
VERTEX
  8
131
  6
CONTINUOUS
 62
     7
 10
130.416271
 20
89.244736
 30
0.0
  0
VERTEX
  8
131
  6
CONTINUOUS
 62
     7
 10
130.452769
 20
89.228086
 30
0.0
  0
VERTEX
  8
131
  6
CONTINUOUS
 62
     7
 10
130.490005
 20
89.215292
 30
0.0
  0
VERTEX
  8
131
  6
CONTINUOUS
 62
     7
 10
130.527219
 20
89.206678
 30
0.0
  0
VERTEX
  8
131
  6
CONTINUOUS
 62
     7
 10
130.563814
 20
89.202195
 30
0.0
  0
VERTEX
  8
131
  6
CONTINUOUS
 62
     7
 10
130.599998
 20
89.2
 30
0.0
  0
SEQEND
  0
LINE
  8
131
  6
CONTINUOUS
 62
     7
 10
130.2
 20
90.05
 30
0.0
 11
130.2
 21
89.599998
 31
0.0
  0
LINE
  8
131
  6
CONTINUOUS
 62
     7
 10
130.2
 20
88.4
 30
0.0
 11
130.2
 21
87.95
 31
0.0
  0
POLYLINE
  8
131
  6
CONTINUOUS
 62
     7
 66
     1
  0
VERTEX
  8
131
  6
CONTINUOUS
 62
     7
 10
130.6
 20
88.8
 30
0.0
  0
VERTEX
  8
131
  6
CONTINUOUS
 62
     7
 10
130.563815
 20
88.797805
 30
0.0
  0
VERTEX
  8
131
  6
CONTINUOUS
 62
     7
 10
130.52722
 20
88.793322
 30
0.0
  0
VERTEX
  8
131
  6
CONTINUOUS
 62
     7
 10
130.490006
 20
88.784709
 30
0.0
  0
VERTEX
  8
131
  6
CONTINUOUS
 62
     7
 10
130.45277
 20
88.771914
 30
0.0
  0
VERTEX
  8
131
  6
CONTINUOUS
 62
     7
 10
130.416272
 20
88.755265
 30
0.0
  0
VERTEX
  8
131
  6
CONTINUOUS
 62
     7
 10
130.381123
 20
88.734796
 30
0.0
  0
VERTEX
  8
131
  6
CONTINUOUS
 62
     7
 10
130.347898
 20
88.710544
 30
0.0
  0
VERTEX
  8
131
  6
CONTINUOUS
 62
     7
 10
130.317162
 20
88.682838
 30
0.0
  0
VERTEX
  8
131
  6
CONTINUOUS
 62
     7
 10
130.289456
 20
88.652102
 30
0.0
  0
VERTEX
  8
131
  6
CONTINUOUS
 62
     7
 10
130.265204
 20
88.618877
 30
0.0
  0
VERTEX
  8
131
  6
CONTINUOUS
 62
     7
 10
130.244735
 20
88.583728
 30
0.0
  0
VERTEX
  8
131
  6
CONTINUOUS
 62
     7
 10
130.228086
 20
88.54723
 30
0.0
  0
VERTEX
  8
131
  6
CONTINUOUS
 62
     7
 10
130.215291
 20
88.509994
 30
0.0
  0
VERTEX
  8
131
  6
CONTINUOUS
 62
     7
 10
130.206678
 20
88.47278
 30
0.0
  0
VERTEX
  8
131
  6
CONTINUOUS
 62
     7
 10
130.202195
 20
88.436185
 30
0.0
  0
VERTEX
  8
131
  6
CONTINUOUS
 62
     7
 10
130.2
 20
88.4
 30
0.0
  0
SEQEND
  0
LINE
  8
131
  6
CONTINUOUS
 62
     7
 10
131.05
 20
88.8
 30
0.0
 11
130.6
 21
88.8
 31
0.0
  0
LINE
  8
131
  6
CONTINUOUS
 62
     7
 10
129.399998
 20
88.8
 30
0.0
 11
128.95
 21
88.8
 31
0.0
  0
POLYLINE
  8
131
  6
CONTINUOUS
 62
     7
 66
     1
  0
VERTEX
  8
131
  6
CONTINUOUS
 62
     7
 10
129.682843
 20
88.682843
 30
0.0
  0
VERTEX
  8
131
  6
CONTINUOUS
 62
     7
 10
129.666562
 20
88.697941
 30
0.0
  0
VERTEX
  8
131
  6
CONTINUOUS
 62
     7
 10
129.650012
 20
88.712284
 30
0.0
  0
VERTEX
  8
131
  6
CONTINUOUS
 62
     7
 10
129.632991
 20
88.725283
 30
0.0
  0
VERTEX
  8
131
  6
CONTINUOUS
 62
     7
 10
129.615574
 20
88.737013
 30
0.0
  0
VERTEX
  8
131
  6
CONTINUOUS
 62
     7
 10
129.597883
 20
88.747669
 30
0.0
  0
VERTEX
  8
131
  6
CONTINUOUS
 62
     7
 10
129.579971
 20
88.757271
 30
0.0
  0
VERTEX
  8
131
  6
CONTINUOUS
 62
     7
 10
129.561874
 20
88.765803
 30
0.0
  0
VERTEX
  8
131
  6
CONTINUOUS
 62
     7
 10
129.543647
 20
88.773301
 30
0.0
  0
VERTEX
  8
131
  6
CONTINUOUS
 62
     7
 10
129.525351
 20
88.779808
 30
0.0
  0
VERTEX
  8
131
  6
CONTINUOUS
 62
     7
 10
129.507044
 20
88.785346
 30
0.0
  0
VERTEX
  8
131
  6
CONTINUOUS
 62
     7
 10
129.488782
 20
88.789941
 30
0.0
  0
VERTEX
  8
131
  6
CONTINUOUS
 62
     7
 10
129.470607
 20
88.793649
 30
0.0
  0
VERTEX
  8
131
  6
CONTINUOUS
 62
     7
 10
129.45257
 20
88.79651
 30
0.0
  0
VERTEX
  8
131
  6
CONTINUOUS
 62
     7
 10
129.434777
 20
88.798453
 30
0.0
  0
VERTEX
  8
131
  6
CONTINUOUS
 62
     7
 10
129.417297
 20
88.79948
 30
0.0
  0
VERTEX
  8
131
  6
CONTINUOUS
 62
     7
 10
129.399998
 20
88.8
 30
0.0
  0
SEQEND
  0
POLYLINE
  8
131
  6
CONTINUOUS
 62
     7
 66
     1
  0
VERTEX
  8
131
  6
CONTINUOUS
 62
     7
 10
129.8
 20
88.399998
 30
0.0
  0
VERTEX
  8
131
  6
CONTINUOUS
 62
     7
 10
129.79948
 20
88.417297
 30
0.0
  0
VERTEX
  8
131
  6
CONTINUOUS
 62
     7
 10
129.798453
 20
88.434777
 30
0.0
  0
VERTEX
  8
131
  6
CONTINUOUS
 62
     7
 10
129.79651
 20
88.45257
 30
0.0
  0
VERTEX
  8
131
  6
CONTINUOUS
 62
     7
 10
129.793649
 20
88.470607
 30
0.0
  0
VERTEX
  8
131
  6
CONTINUOUS
 62
     7
 10
129.789941
 20
88.488782
 30
0.0
  0
VERTEX
  8
131
  6
CONTINUOUS
 62
     7
 10
129.785346
 20
88.507044
 30
0.0
  0
VERTEX
  8
131
  6
CONTINUOUS
 62
     7
 10
129.779808
 20
88.525351
 30
0.0
  0
VERTEX
  8
131
  6
CONTINUOUS
 62
     7
 10
129.773301
 20
88.543647
 30
0.0
  0
VERTEX
  8
131
  6
CONTINUOUS
 62
     7
 10
129.765803
 20
88.561874
 30
0.0
  0
VERTEX
  8
131
  6
CONTINUOUS
 62
     7
 10
129.757271
 20
88.579971
 30
0.0
  0
VERTEX
  8
131
  6
CONTINUOUS
 62
     7
 10
129.747669
 20
88.597883
 30
0.0
  0
VERTEX
  8
131
  6
CONTINUOUS
 62
     7
 10
129.737013
 20
88.615574
 30
0.0
  0
VERTEX
  8
131
  6
CONTINUOUS
 62
     7
 10
129.725283
 20
88.632991
 30
0.0
  0
VERTEX
  8
131
  6
CONTINUOUS
 62
     7
 10
129.712284
 20
88.650012
 30
0.0
  0
VERTEX
  8
131
  6
CONTINUOUS
 62
     7
 10
129.697941
 20
88.666562
 30
0.0
  0
VERTEX
  8
131
  6
CONTINUOUS
 62
     7
 10
129.682843
 20
88.682843
 30
0.0
  0
SEQEND
  0
LINE
  8
131
  6
CONTINUOUS
 62
     7
 10
129.8
 20
87.95
 30
0.0
 11
129.8
 21
88.399998
 31
0.0
  0
POLYLINE
  8
131
  6
CONTINUOUS
 62
     7
 66
     1
  0
VERTEX
  8
131
  6
CONTINUOUS
 62
     7
 10
129.4
 20
89.2
 30
0.0
  0
VERTEX
  8
131
  6
CONTINUOUS
 62
     7
 10
129.436185
 20
89.202195
 30
0.0
  0
VERTEX
  8
131
  6
CONTINUOUS
 62
     7
 10
129.47278
 20
89.206678
 30
0.0
  0
VERTEX
  8
131
  6
CONTINUOUS
 62
     7
 10
129.509994
 20
89.215291
 30
0.0
  0
VERTEX
  8
131
  6
CONTINUOUS
 62
     7
 10
129.54723
 20
89.228086
 30
0.0
  0
VERTEX
  8
131
  6
CONTINUOUS
 62
     7
 10
129.583728
 20
89.244735
 30
0.0
  0
VERTEX
  8
131
  6
CONTINUOUS
 62
     7
 10
129.618877
 20
89.265204
 30
0.0
  0
VERTEX
  8
131
  6
CONTINUOUS
 62
     7
 10
129.652102
 20
89.289456
 30
0.0
  0
VERTEX
  8
131
  6
CONTINUOUS
 62
     7
 10
129.682838
 20
89.317162
 30
0.0
  0
VERTEX
  8
131
  6
CONTINUOUS
 62
     7
 10
129.710544
 20
89.347898
 30
0.0
  0
VERTEX
  8
131
  6
CONTINUOUS
 62
     7
 10
129.734796
 20
89.381123
 30
0.0
  0
VERTEX
  8
131
  6
CONTINUOUS
 62
     7
 10
129.755265
 20
89.416272
 30
0.0
  0
VERTEX
  8
131
  6
CONTINUOUS
 62
     7
 10
129.771914
 20
89.45277
 30
0.0
  0
VERTEX
  8
131
  6
CONTINUOUS
 62
     7
 10
129.784709
 20
89.490006
 30
0.0
  0
VERTEX
  8
131
  6
CONTINUOUS
 62
     7
 10
129.793322
 20
89.52722
 30
0.0
  0
VERTEX
  8
131
  6
CONTINUOUS
 62
     7
 10
129.797805
 20
89.563815
 30
0.0
  0
VERTEX
  8
131
  6
CONTINUOUS
 62
     7
 10
129.8
 20
89.6
 30
0.0
  0
SEQEND
  0
LINE
  8
131
  6
CONTINUOUS
 62
     7
 10
129.4
 20
89.2
 30
0.0
 11
128.95
 21
89.2
 31
0.0
  0
LINE
  8
131
  6
CONTINUOUS
 62
     7
 10
129.8
 20
89.6
 30
0.0
 11
129.8
 21
90.05
 31
0.0
  0
LINE
  8
131
  6
CONTINUOUS
 62
     7
 10
131.05
 20
88.8
 30
0.0
 11
131.05
 21
89.2
 31
0.0
  0
LINE
  8
131
  6
CONTINUOUS
 62
     7
 10
129.8
 20
87.95
 30
0.0
 11
130.2
 21
87.95
 31
0.0
  0
LINE
  8
131
  6
CONTINUOUS
 62
     7
 10
128.95
 20
89.2
 30
0.0
 11
128.95
 21
88.8
 31
0.0
  0
LINE
  8
131
  6
CONTINUOUS
 62
     7
 10
129.8
 20
90.05
 30
0.0
 11
130.2
 21
90.05
 31
0.0
  0
LINE
  8
131
  6
CONTINUOUS
 62
     7
 10
131.312275
 20
89.0
 30
0.0
 11
131.7
 21
89.0
 31
0.0
  0
CIRCLE
  8
131
  6
CONTINUOUS
 62
     7
 10
130.0
 20
89.0
 30
0.0
 40
1.75
  0
CIRCLE
  8
131
  6
CONTINUOUS
 62
     7
 10
130.0
 20
89.0
 30
0.0
 40
1.7
  0
CIRCLE
  8
131
  6
CONTINUOUS
 62
     7
 10
130.0
 20
89.0
 30
0.0
 40
1.312275
  0
LINE
  8
131
  6
CONTINUOUS
 62
     7
 10
130.0
 20
87.687725
 30
0.0
 11
130.0
 21
87.3
 31
0.0
  0
LINE
  8
131
  6
CONTINUOUS
 62
     7
 10
128.687725
 20
89.0
 30
0.0
 11
128.3
 21
89.0
 31
0.0
  0
LINE
  8
131
  6
CONTINUOUS
 62
     7
 10
130.0
 20
90.312275
 30
0.0
 11
130.0
 21
90.7
 31
0.0
  0
LINE
  8
131
  6
CONTINUOUS
 62
     7
 10
120.599998
 20
89.2
 30
0.0
 11
121.05
 21
89.2
 31
0.0
  0
POLYLINE
  8
131
  6
CONTINUOUS
 62
     7
 66
     1
  0
VERTEX
  8
131
  6
CONTINUOUS
 62
     7
 10
120.2
 20
89.599998
 30
0.0
  0
VERTEX
  8
131
  6
CONTINUOUS
 62
     7
 10
120.202195
 20
89.563814
 30
0.0
  0
VERTEX
  8
131
  6
CONTINUOUS
 62
     7
 10
120.206678
 20
89.527219
 30
0.0
  0
VERTEX
  8
131
  6
CONTINUOUS
 62
     7
 10
120.215292
 20
89.490005
 30
0.0
  0
VERTEX
  8
131
  6
CONTINUOUS
 62
     7
 10
120.228086
 20
89.452769
 30
0.0
  0
VERTEX
  8
131
  6
CONTINUOUS
 62
     7
 10
120.244736
 20
89.416271
 30
0.0
  0
VERTEX
  8
131
  6
CONTINUOUS
 62
     7
 10
120.265205
 20
89.381123
 30
0.0
  0
VERTEX
  8
131
  6
CONTINUOUS
 62
     7
 10
120.289456
 20
89.347898
 30
0.0
  0
VERTEX
  8
131
  6
CONTINUOUS
 62
     7
 10
120.317162
 20
89.317162
 30
0.0
  0
VERTEX
  8
131
  6
CONTINUOUS
 62
     7
 10
120.347898
 20
89.289456
 30
0.0
  0
VERTEX
  8
131
  6
CONTINUOUS
 62
     7
 10
120.381123
 20
89.265205
 30
0.0
  0
VERTEX
  8
131
  6
CONTINUOUS
 62
     7
 10
120.416271
 20
89.244736
 30
0.0
  0
VERTEX
  8
131
  6
CONTINUOUS
 62
     7
 10
120.452769
 20
89.228086
 30
0.0
  0
VERTEX
  8
131
  6
CONTINUOUS
 62
     7
 10
120.490005
 20
89.215292
 30
0.0
  0
VERTEX
  8
131
  6
CONTINUOUS
 62
     7
 10
120.527219
 20
89.206678
 30
0.0
  0
VERTEX
  8
131
  6
CONTINUOUS
 62
     7
 10
120.563814
 20
89.202195
 30
0.0
  0
VERTEX
  8
131
  6
CONTINUOUS
 62
     7
 10
120.599998
 20
89.2
 30
0.0
  0
SEQEND
  0
LINE
  8
131
  6
CONTINUOUS
 62
     7
 10
120.2
 20
90.05
 30
0.0
 11
120.2
 21
89.599998
 31
0.0
  0
LINE
  8
131
  6
CONTINUOUS
 62
     7
 10
120.2
 20
88.4
 30
0.0
 11
120.2
 21
87.95
 31
0.0
  0
POLYLINE
  8
131
  6
CONTINUOUS
 62
     7
 66
     1
  0
VERTEX
  8
131
  6
CONTINUOUS
 62
     7
 10
120.6
 20
88.8
 30
0.0
  0
VERTEX
  8
131
  6
CONTINUOUS
 62
     7
 10
120.563815
 20
88.797805
 30
0.0
  0
VERTEX
  8
131
  6
CONTINUOUS
 62
     7
 10
120.52722
 20
88.793322
 30
0.0
  0
VERTEX
  8
131
  6
CONTINUOUS
 62
     7
 10
120.490006
 20
88.784709
 30
0.0
  0
VERTEX
  8
131
  6
CONTINUOUS
 62
     7
 10
120.45277
 20
88.771914
 30
0.0
  0
VERTEX
  8
131
  6
CONTINUOUS
 62
     7
 10
120.416272
 20
88.755265
 30
0.0
  0
VERTEX
  8
131
  6
CONTINUOUS
 62
     7
 10
120.381123
 20
88.734796
 30
0.0
  0
VERTEX
  8
131
  6
CONTINUOUS
 62
     7
 10
120.347898
 20
88.710544
 30
0.0
  0
VERTEX
  8
131
  6
CONTINUOUS
 62
     7
 10
120.317162
 20
88.682838
 30
0.0
  0
VERTEX
  8
131
  6
CONTINUOUS
 62
     7
 10
120.289456
 20
88.652102
 30
0.0
  0
VERTEX
  8
131
  6
CONTINUOUS
 62
     7
 10
120.265204
 20
88.618877
 30
0.0
  0
VERTEX
  8
131
  6
CONTINUOUS
 62
     7
 10
120.244735
 20
88.583728
 30
0.0
  0
VERTEX
  8
131
  6
CONTINUOUS
 62
     7
 10
120.228086
 20
88.54723
 30
0.0
  0
VERTEX
  8
131
  6
CONTINUOUS
 62
     7
 10
120.215291
 20
88.509994
 30
0.0
  0
VERTEX
  8
131
  6
CONTINUOUS
 62
     7
 10
120.206678
 20
88.47278
 30
0.0
  0
VERTEX
  8
131
  6
CONTINUOUS
 62
     7
 10
120.202195
 20
88.436185
 30
0.0
  0
VERTEX
  8
131
  6
CONTINUOUS
 62
     7
 10
120.2
 20
88.4
 30
0.0
  0
SEQEND
  0
LINE
  8
131
  6
CONTINUOUS
 62
     7
 10
121.05
 20
88.8
 30
0.0
 11
120.6
 21
88.8
 31
0.0
  0
LINE
  8
131
  6
CONTINUOUS
 62
     7
 10
119.399998
 20
88.8
 30
0.0
 11
118.95
 21
88.8
 31
0.0
  0
POLYLINE
  8
131
  6
CONTINUOUS
 62
     7
 66
     1
  0
VERTEX
  8
131
  6
CONTINUOUS
 62
     7
 10
119.682843
 20
88.682843
 30
0.0
  0
VERTEX
  8
131
  6
CONTINUOUS
 62
     7
 10
119.666562
 20
88.697941
 30
0.0
  0
VERTEX
  8
131
  6
CONTINUOUS
 62
     7
 10
119.650012
 20
88.712284
 30
0.0
  0
VERTEX
  8
131
  6
CONTINUOUS
 62
     7
 10
119.632991
 20
88.725283
 30
0.0
  0
VERTEX
  8
131
  6
CONTINUOUS
 62
     7
 10
119.615574
 20
88.737013
 30
0.0
  0
VERTEX
  8
131
  6
CONTINUOUS
 62
     7
 10
119.597883
 20
88.747669
 30
0.0
  0
VERTEX
  8
131
  6
CONTINUOUS
 62
     7
 10
119.579971
 20
88.757271
 30
0.0
  0
VERTEX
  8
131
  6
CONTINUOUS
 62
     7
 10
119.561874
 20
88.765803
 30
0.0
  0
VERTEX
  8
131
  6
CONTINUOUS
 62
     7
 10
119.543647
 20
88.773301
 30
0.0
  0
VERTEX
  8
131
  6
CONTINUOUS
 62
     7
 10
119.525351
 20
88.779808
 30
0.0
  0
VERTEX
  8
131
  6
CONTINUOUS
 62
     7
 10
119.507044
 20
88.785346
 30
0.0
  0
VERTEX
  8
131
  6
CONTINUOUS
 62
     7
 10
119.488782
 20
88.789941
 30
0.0
  0
VERTEX
  8
131
  6
CONTINUOUS
 62
     7
 10
119.470607
 20
88.793649
 30
0.0
  0
VERTEX
  8
131
  6
CONTINUOUS
 62
     7
 10
119.45257
 20
88.79651
 30
0.0
  0
VERTEX
  8
131
  6
CONTINUOUS
 62
     7
 10
119.434777
 20
88.798453
 30
0.0
  0
VERTEX
  8
131
  6
CONTINUOUS
 62
     7
 10
119.417297
 20
88.79948
 30
0.0
  0
VERTEX
  8
131
  6
CONTINUOUS
 62
     7
 10
119.399998
 20
88.8
 30
0.0
  0
SEQEND
  0
POLYLINE
  8
131
  6
CONTINUOUS
 62
     7
 66
     1
  0
VERTEX
  8
131
  6
CONTINUOUS
 62
     7
 10
119.8
 20
88.399998
 30
0.0
  0
VERTEX
  8
131
  6
CONTINUOUS
 62
     7
 10
119.79948
 20
88.417297
 30
0.0
  0
VERTEX
  8
131
  6
CONTINUOUS
 62
     7
 10
119.798453
 20
88.434777
 30
0.0
  0
VERTEX
  8
131
  6
CONTINUOUS
 62
     7
 10
119.79651
 20
88.45257
 30
0.0
  0
VERTEX
  8
131
  6
CONTINUOUS
 62
     7
 10
119.793649
 20
88.470607
 30
0.0
  0
VERTEX
  8
131
  6
CONTINUOUS
 62
     7
 10
119.789941
 20
88.488782
 30
0.0
  0
VERTEX
  8
131
  6
CONTINUOUS
 62
     7
 10
119.785346
 20
88.507044
 30
0.0
  0
VERTEX
  8
131
  6
CONTINUOUS
 62
     7
 10
119.779808
 20
88.525351
 30
0.0
  0
VERTEX
  8
131
  6
CONTINUOUS
 62
     7
 10
119.773301
 20
88.543647
 30
0.0
  0
VERTEX
  8
131
  6
CONTINUOUS
 62
     7
 10
119.765803
 20
88.561874
 30
0.0
  0
VERTEX
  8
131
  6
CONTINUOUS
 62
     7
 10
119.757271
 20
88.579971
 30
0.0
  0
VERTEX
  8
131
  6
CONTINUOUS
 62
     7
 10
119.747669
 20
88.597883
 30
0.0
  0
VERTEX
  8
131
  6
CONTINUOUS
 62
     7
 10
119.737013
 20
88.615574
 30
0.0
  0
VERTEX
  8
131
  6
CONTINUOUS
 62
     7
 10
119.725283
 20
88.632991
 30
0.0
  0
VERTEX
  8
131
  6
CONTINUOUS
 62
     7
 10
119.712284
 20
88.650012
 30
0.0
  0
VERTEX
  8
131
  6
CONTINUOUS
 62
     7
 10
119.697941
 20
88.666562
 30
0.0
  0
VERTEX
  8
131
  6
CONTINUOUS
 62
     7
 10
119.682843
 20
88.682843
 30
0.0
  0
SEQEND
  0
LINE
  8
131
  6
CONTINUOUS
 62
     7
 10
119.8
 20
87.95
 30
0.0
 11
119.8
 21
88.399998
 31
0.0
  0
POLYLINE
  8
131
  6
CONTINUOUS
 62
     7
 66
     1
  0
VERTEX
  8
131
  6
CONTINUOUS
 62
     7
 10
119.4
 20
89.2
 30
0.0
  0
VERTEX
  8
131
  6
CONTINUOUS
 62
     7
 10
119.436185
 20
89.202195
 30
0.0
  0
VERTEX
  8
131
  6
CONTINUOUS
 62
     7
 10
119.47278
 20
89.206678
 30
0.0
  0
VERTEX
  8
131
  6
CONTINUOUS
 62
     7
 10
119.509994
 20
89.215291
 30
0.0
  0
VERTEX
  8
131
  6
CONTINUOUS
 62
     7
 10
119.54723
 20
89.228086
 30
0.0
  0
VERTEX
  8
131
  6
CONTINUOUS
 62
     7
 10
119.583728
 20
89.244735
 30
0.0
  0
VERTEX
  8
131
  6
CONTINUOUS
 62
     7
 10
119.618877
 20
89.265204
 30
0.0
  0
VERTEX
  8
131
  6
CONTINUOUS
 62
     7
 10
119.652102
 20
89.289456
 30
0.0
  0
VERTEX
  8
131
  6
CONTINUOUS
 62
     7
 10
119.682838
 20
89.317162
 30
0.0
  0
VERTEX
  8
131
  6
CONTINUOUS
 62
     7
 10
119.710544
 20
89.347898
 30
0.0
  0
VERTEX
  8
131
  6
CONTINUOUS
 62
     7
 10
119.734796
 20
89.381123
 30
0.0
  0
VERTEX
  8
131
  6
CONTINUOUS
 62
     7
 10
119.755265
 20
89.416272
 30
0.0
  0
VERTEX
  8
131
  6
CONTINUOUS
 62
     7
 10
119.771914
 20
89.45277
 30
0.0
  0
VERTEX
  8
131
  6
CONTINUOUS
 62
     7
 10
119.784709
 20
89.490006
 30
0.0
  0
VERTEX
  8
131
  6
CONTINUOUS
 62
     7
 10
119.793322
 20
89.52722
 30
0.0
  0
VERTEX
  8
131
  6
CONTINUOUS
 62
     7
 10
119.797805
 20
89.563815
 30
0.0
  0
VERTEX
  8
131
  6
CONTINUOUS
 62
     7
 10
119.8
 20
89.6
 30
0.0
  0
SEQEND
  0
LINE
  8
131
  6
CONTINUOUS
 62
     7
 10
119.4
 20
89.2
 30
0.0
 11
118.95
 21
89.2
 31
0.0
  0
LINE
  8
131
  6
CONTINUOUS
 62
     7
 10
119.8
 20
89.6
 30
0.0
 11
119.8
 21
90.05
 31
0.0
  0
LINE
  8
131
  6
CONTINUOUS
 62
     7
 10
121.05
 20
88.8
 30
0.0
 11
121.05
 21
89.2
 31
0.0
  0
LINE
  8
131
  6
CONTINUOUS
 62
     7
 10
119.8
 20
87.95
 30
0.0
 11
120.2
 21
87.95
 31
0.0
  0
LINE
  8
131
  6
CONTINUOUS
 62
     7
 10
118.95
 20
89.2
 30
0.0
 11
118.95
 21
88.8
 31
0.0
  0
LINE
  8
131
  6
CONTINUOUS
 62
     7
 10
119.8
 20
90.05
 30
0.0
 11
120.2
 21
90.05
 31
0.0
  0
LINE
  8
131
  6
CONTINUOUS
 62
     7
 10
121.312275
 20
89.0
 30
0.0
 11
121.7
 21
89.0
 31
0.0
  0
CIRCLE
  8
131
  6
CONTINUOUS
 62
     7
 10
120.0
 20
89.0
 30
0.0
 40
1.75
  0
CIRCLE
  8
131
  6
CONTINUOUS
 62
     7
 10
120.0
 20
89.0
 30
0.0
 40
1.7
  0
CIRCLE
  8
131
  6
CONTINUOUS
 62
     7
 10
120.0
 20
89.0
 30
0.0
 40
1.312275
  0
LINE
  8
131
  6
CONTINUOUS
 62
     7
 10
120.0
 20
87.687725
 30
0.0
 11
120.0
 21
87.3
 31
0.0
  0
LINE
  8
131
  6
CONTINUOUS
 62
     7
 10
118.687725
 20
89.0
 30
0.0
 11
118.3
 21
89.0
 31
0.0
  0
LINE
  8
131
  6
CONTINUOUS
 62
     7
 10
120.0
 20
90.312275
 30
0.0
 11
120.0
 21
90.7
 31
0.0
  0
LINE
  8
131
  6
CONTINUOUS
 62
     7
 10
129.0
 20
139.326
 30
0.0
 11
129.5
 21
139.826
 31
0.0
  0
LINE
  8
131
  6
CONTINUOUS
 62
     7
 10
137.0
 20
139.326
 30
0.0
 11
136.5
 21
139.826
 31
0.0
  0
LINE
  8
131
  6
CONTINUOUS
 62
     7
 10
137.0
 20
139.326
 30
0.0
 11
129.0
 21
139.326
 31
0.0
  0
LINE
  8
131
  6
CONTINUOUS
 62
     7
 10
129.5
 20
139.826
 30
0.0
 11
136.5
 21
139.826
 31
0.0
  0
LINE
  8
131
  6
CONTINUOUS
 62
     7
 10
129.0
 20
130.326
 30
0.0
 11
129.5
 21
129.826
 31
0.0
  0
LINE
  8
131
  6
CONTINUOUS
 62
     7
 10
137.0
 20
130.326
 30
0.0
 11
136.5
 21
129.826
 31
0.0
  0
LINE
  8
131
  6
CONTINUOUS
 62
     7
 10
137.0
 20
130.326
 30
0.0
 11
129.0
 21
130.326
 31
0.0
  0
LINE
  8
131
  6
CONTINUOUS
 62
     7
 10
136.5
 20
129.826
 30
0.0
 11
129.5
 21
129.826
 31
0.0
  0
LINE
  8
131
  6
CONTINUOUS
 62
     7
 10
129.0
 20
130.326
 30
0.0
 11
129.0
 21
139.326
 31
0.0
  0
LINE
  8
131
  6
CONTINUOUS
 62
     7
 10
137.0
 20
130.326
 30
0.0
 11
137.0
 21
139.326
 31
0.0
  0
LINE
  8
131
  6
CONTINUOUS
 62
     7
 10
112.5
 20
118.0
 30
0.0
 11
121.5
 21
118.0
 31
0.0
  0
LINE
  8
131
  6
CONTINUOUS
 62
     7
 10
137.5
 20
118.0
 30
0.0
 11
128.5
 21
118.0
 31
0.0
  0
LINE
  8
131
  6
CONTINUOUS
 62
     7
 10
121.5
 20
125.5
 30
0.0
 11
121.5
 21
117.5
 31
0.0
  0
LINE
  8
131
  6
CONTINUOUS
 62
     7
 10
137.5
 20
125.0
 30
0.0
 11
128.5
 21
125.0
 31
0.0
  0
LINE
  8
131
  6
CONTINUOUS
 62
     7
 10
112.5
 20
125.0
 30
0.0
 11
121.5
 21
125.0
 31
0.0
  0
LINE
  8
131
  6
CONTINUOUS
 62
     7
 10
130.2
 20
129.826
 30
0.0
 11
130.0
 21
129.626
 31
0.0
  0
LINE
  8
131
  6
CONTINUOUS
 62
     7
 10
130.0
 20
125.5
 30
0.0
 11
130.0
 21
129.626
 31
0.0
  0
LINE
  8
131
  6
CONTINUOUS
 62
     7
 10
136.0
 20
129.626
 30
0.0
 11
130.0
 21
129.626
 31
0.0
  0
LINE
  8
131
  6
CONTINUOUS
 62
     7
 10
136.0
 20
129.626
 30
0.0
 11
135.8
 21
129.826
 31
0.0
  0
LINE
  8
131
  6
CONTINUOUS
 62
     7
 10
136.0
 20
125.5
 30
0.0
 11
136.0
 21
129.626
 31
0.0
  0
LINE
  8
131
  6
CONTINUOUS
 62
     7
 10
128.5
 20
125.5
 30
0.0
 11
128.5
 21
117.5
 31
0.0
  0
LINE
  8
131
  6
CONTINUOUS
 62
     7
 10
137.5
 20
125.5
 30
0.0
 11
128.5
 21
125.5
 31
0.0
  0
LINE
  8
131
  6
CONTINUOUS
 62
     7
 10
137.0
 20
91.134901
 30
0.0
 11
113.0
 21
91.134901
 31
0.0
  0
LINE
  8
131
  6
CONTINUOUS
 62
     7
 10
113.0
 20
88.5
 30
0.0
 11
113.0
 21
92.5
 31
0.0
  0
LINE
  8
131
  6
CONTINUOUS
 62
     7
 10
137.0
 20
88.5
 30
0.0
 11
137.0
 21
92.5
 31
0.0
  0
LINE
  8
131
  6
CONTINUOUS
 62
     7
 10
135.0
 20
86.5
 30
0.0
 11
137.0
 21
88.5
 31
0.0
  0
LINE
  8
131
  6
CONTINUOUS
 62
     7
 10
115.0
 20
86.5
 30
0.0
 11
113.0
 21
88.5
 31
0.0
  0
LINE
  8
131
  6
CONTINUOUS
 62
     7
 10
137.5
 20
86.5
 30
0.0
 11
112.5
 21
86.5
 31
0.0
  0
LINE
  8
131
  6
CONTINUOUS
 62
     7
 10
112.5
 20
80.0
 30
0.0
 11
137.5
 21
80.0
 31
0.0
  0
LINE
  8
131
  6
CONTINUOUS
 62
     7
 10
137.5
 20
75.0
 30
0.0
 11
112.5
 21
75.0
 31
0.0
  0
LINE
  8
131
  6
CONTINUOUS
 62
     7
 10
134.5
 20
80.0
 30
0.0
 11
134.5
 21
75.0
 31
0.0
  0
LINE
  8
131
  6
CONTINUOUS
 62
     7
 10
137.5
 20
75.0
 30
0.0
 11
137.5
 21
125.5
 31
0.0
  0
LINE
  8
131
  6
CONTINUOUS
 62
     7
 10
115.5
 20
75.0
 30
0.0
 11
115.5
 21
80.0
 31
0.0
  0
LINE
  8
131
  6
CONTINUOUS
 62
     7
 10
112.5
 20
75.0
 30
0.0
 11
112.5
 21
125.5
 31
0.0
  0
POLYLINE
  8
129
  6
CONTINUOUS
 62
     7
 66
     1
  0
VERTEX
  8
129
  6
CONTINUOUS
 62
     7
 10
64.379429
 20
88.682843
 30
0.0
  0
VERTEX
  8
129
  6
CONTINUOUS
 62
     7
 10
64.379283
 20
88.697941
 30
0.0
  0
VERTEX
  8
129
  6
CONTINUOUS
 62
     7
 10
64.379012
 20
88.712284
 30
0.0
  0
VERTEX
  8
129
  6
CONTINUOUS
 62
     7
 10
64.378517
 20
88.725283
 30
0.0
  0
VERTEX
  8
129
  6
CONTINUOUS
 62
     7
 10
64.377818
 20
88.737012
 30
0.0
  0
VERTEX
  8
129
  6
CONTINUOUS
 62
     7
 10
64.376952
 20
88.747669
 30
0.0
  0
VERTEX
  8
129
  6
CONTINUOUS
 62
     7
 10
64.37593
 20
88.75727
 30
0.0
  0
VERTEX
  8
129
  6
CONTINUOUS
 62
     7
 10
64.374753
 20
88.765802
 30
0.0
  0
VERTEX
  8
129
  6
CONTINUOUS
 62
     7
 10
64.373432
 20
88.7733
 30
0.0
  0
VERTEX
  8
129
  6
CONTINUOUS
 62
     7
 10
64.37198
 20
88.779807
 30
0.0
  0
VERTEX
  8
129
  6
CONTINUOUS
 62
     7
 10
64.370407
 20
88.785346
 30
0.0
  0
VERTEX
  8
129
  6
CONTINUOUS
 62
     7
 10
64.368723
 20
88.78994
 30
0.0
  0
VERTEX
  8
129
  6
CONTINUOUS
 62
     7
 10
64.36694
 20
88.793649
 30
0.0
  0
VERTEX
  8
129
  6
CONTINUOUS
 62
     7
 10
64.365069
 20
88.79651
 30
0.0
  0
VERTEX
  8
129
  6
CONTINUOUS
 62
     7
 10
64.363114
 20
88.798453
 30
0.0
  0
VERTEX
  8
129
  6
CONTINUOUS
 62
     7
 10
64.361083
 20
88.79948
 30
0.0
  0
VERTEX
  8
129
  6
CONTINUOUS
 62
     7
 10
64.359012
 20
88.8
 30
0.0
  0
SEQEND
  0
LINE
  8
129
  6
CONTINUOUS
 62
     7
 10
56.0
 20
139.326
 30
0.0
 11
56.5
 21
139.826
 31
0.0
  0
LINE
  8
129
  6
CONTINUOUS
 62
     7
 10
64.0
 20
139.326
 30
0.0
 11
63.5
 21
139.826
 31
0.0
  0
LINE
  8
129
  6
CONTINUOUS
 62
     7
 10
64.0
 20
139.326
 30
0.0
 11
56.0
 21
139.326
 31
0.0
  0
LINE
  8
129
  6
CONTINUOUS
 62
     7
 10
56.5
 20
139.826
 30
0.0
 11
63.5
 21
139.826
 31
0.0
  0
LINE
  8
129
  6
CONTINUOUS
 62
     7
 10
56.0
 20
130.326
 30
0.0
 11
56.5
 21
129.826
 31
0.0
  0
LINE
  8
129
  6
CONTINUOUS
 62
     7
 10
64.0
 20
130.326
 30
0.0
 11
63.5
 21
129.826
 31
0.0
  0
LINE
  8
129
  6
CONTINUOUS
 62
     7
 10
64.0
 20
130.326
 30
0.0
 11
56.0
 21
130.326
 31
0.0
  0
LINE
  8
129
  6
CONTINUOUS
 62
     7
 10
63.5
 20
129.826
 30
0.0
 11
56.5
 21
129.826
 31
0.0
  0
LINE
  8
129
  6
CONTINUOUS
 62
     7
 10
56.0
 20
130.326
 30
0.0
 11
56.0
 21
139.326
 31
0.0
  0
LINE
  8
129
  6
CONTINUOUS
 62
     7
 10
64.0
 20
130.326
 30
0.0
 11
64.0
 21
139.326
 31
0.0
  0
LINE
  8
129
  6
CONTINUOUS
 62
     7
 10
62.8
 20
113.322876
 30
0.0
 11
64.7
 21
113.322876
 31
0.0
  0
LINE
  8
129
  6
CONTINUOUS
 62
     7
 10
62.8
 20
110.677124
 30
0.0
 11
64.508577
 21
110.677124
 31
0.0
  0
LINE
  8
129
  6
CONTINUOUS
 62
     7
 10
64.809723
 20
110.677124
 30
0.0
 11
65.0
 21
110.677124
 31
0.0
  0
LINE
  8
129
  6
CONTINUOUS
 62
     7
 10
62.856399
 20
114.0
 30
0.0
 11
62.8
 21
113.932787
 31
0.0
  0
LINE
  8
129
  6
CONTINUOUS
 62
     7
 10
64.7
 20
114.0
 30
0.0
 11
62.856399
 21
114.0
 31
0.0
  0
LINE
  8
129
  6
CONTINUOUS
 62
     7
 10
65.0
 20
110.0
 30
0.0
 11
64.750482
 21
110.0
 31
0.0
  0
LINE
  8
129
  6
CONTINUOUS
 62
     7
 10
64.449336
 20
110.0
 30
0.0
 11
62.8
 21
110.0
 31
0.0
  0
ARC
  8
129
  6
CONTINUOUS
 62
     7
 10
65.0
 20
98.0
 30
0.0
 40
1.5
 50
90.0
 51
144.650358
  0
ARC
  8
129
  6
CONTINUOUS
 62
     7
 10
65.0
 20
98.0
 30
0.0
 40
1.5
 50
205.349642
 51
270.0
  0
LINE
  8
129
  6
CONTINUOUS
 62
     7
 10
70.0
 20
92.5
 30
0.0
 11
65.0
 21
92.5
 31
0.0
  0
LINE
  8
129
  6
CONTINUOUS
 62
     7
 10
70.0
 20
117.0
 30
0.0
 11
65.0
 21
117.0
 31
0.0
  0
LINE
  8
129
  6
CONTINUOUS
 62
     7
 10
70.0
 20
93.0
 30
0.0
 11
65.0
 21
93.0
 31
0.0
  0
LINE
  8
129
  6
CONTINUOUS
 62
     7
 10
65.0
 20
117.5
 30
0.0
 11
65.0
 21
92.5
 31
0.0
  0
LINE
  8
129
  6
CONTINUOUS
 62
     7
 10
70.0
 20
92.5
 30
0.0
 11
70.0
 21
117.5
 31
0.0
  0
LINE
  8
129
  6
CONTINUOUS
 62
     7
 10
64.5
 20
125.5
 30
0.0
 11
64.5
 21
125.0
 31
0.0
  0
LINE
  8
129
  6
CONTINUOUS
 62
     7
 10
55.5
 20
125.5
 30
0.0
 11
55.5
 21
125.0
 31
0.0
  0
LINE
  8
129
  6
CONTINUOUS
 62
     7
 10
64.5
 20
125.5
 30
0.0
 11
55.5
 21
125.5
 31
0.0
  0
LINE
  8
129
  6
CONTINUOUS
 62
     7
 10
63.4
 20
99.322876
 30
0.0
 11
63.515209
 21
99.322876
 31
0.0
  0
LINE
  8
129
  6
CONTINUOUS
 62
     7
 10
63.816355
 20
99.322876
 30
0.0
 11
64.292893
 21
99.322876
 31
0.0
  0
LINE
  8
129
  6
CONTINUOUS
 62
     7
 10
63.584882
 20
96.677124
 30
0.0
 11
64.292893
 21
96.677124
 31
0.0
  0
LINE
  8
129
  6
CONTINUOUS
 62
     7
 10
62.856399
 20
100.0
 30
0.0
 11
62.8
 21
99.932787
 31
0.0
  0
LINE
  8
129
  6
CONTINUOUS
 62
     7
 10
65.0
 20
100.0
 30
0.0
 11
63.875596
 21
100.0
 31
0.0
  0
LINE
  8
129
  6
CONTINUOUS
 62
     7
 10
63.57445
 20
100.0
 30
0.0
 11
62.856399
 21
100.0
 31
0.0
  0
LINE
  8
129
  6
CONTINUOUS
 62
     7
 10
65.0
 20
96.0
 30
0.0
 11
63.525641
 21
96.0
 31
0.0
  0
LINE
  8
129
  6
CONTINUOUS
 62
     7
 10
63.224495
 20
96.0
 30
0.0
 11
62.8
 21
96.0
 31
0.0
  0
LINE
  8
129
  6
CONTINUOUS
 62
     7
 10
57.2
 20
129.826
 30
0.0
 11
57.0
 21
129.626
 31
0.0
  0
LINE
  8
129
  6
CONTINUOUS
 62
     7
 10
57.0
 20
125.5
 30
0.0
 11
57.0
 21
129.626
 31
0.0
  0
LINE
  8
129
  6
CONTINUOUS
 62
     7
 10
63.0
 20
129.626
 30
0.0
 11
57.0
 21
129.626
 31
0.0
  0
LINE
  8
129
  6
CONTINUOUS
 62
     7
 10
62.8
 20
129.826
 30
0.0
 11
63.0
 21
129.626
 31
0.0
  0
LINE
  8
129
  6
CONTINUOUS
 62
     7
 10
63.0
 20
125.5
 30
0.0
 11
63.0
 21
129.626
 31
0.0
  0
LINE
  8
129
  6
CONTINUOUS
 62
     7
 10
63.4
 20
99.5
 30
0.0
 11
63.4
 21
98.006031
 31
0.0
  0
LINE
  8
129
  6
CONTINUOUS
 62
     7
 10
62.8
 20
96.5
 30
0.0
 11
63.268239
 21
96.5
 31
0.0
  0
LINE
  8
129
  6
CONTINUOUS
 62
     7
 10
62.8
 20
99.5
 30
0.0
 11
63.4
 21
99.5
 31
0.0
  0
POLYLINE
  8
129
  6
CONTINUOUS
 62
     7
 66
     1
  0
VERTEX
  8
129
  6
CONTINUOUS
 62
     7
 10
64.359012
 20
88.8
 30
0.0
  0
VERTEX
  8
129
  6
CONTINUOUS
 62
     7
 10
64.363209
 20
88.797805
 30
0.0
  0
VERTEX
  8
129
  6
CONTINUOUS
 62
     7
 10
64.367175
 20
88.793322
 30
0.0
  0
VERTEX
  8
129
  6
CONTINUOUS
 62
     7
 10
64.370706
 20
88.784709
 30
0.0
  0
VERTEX
  8
129
  6
CONTINUOUS
 62
     7
 10
64.373724
 20
88.771914
 30
0.0
  0
VERTEX
  8
129
  6
CONTINUOUS
 62
     7
 10
64.376175
 20
88.755265
 30
0.0
  0
VERTEX
  8
129
  6
CONTINUOUS
 62
     7
 10
64.377988
 20
88.734796
 30
0.0
  0
VERTEX
  8
129
  6
CONTINUOUS
 62
     7
 10
64.379096
 20
88.710544
 30
0.0
  0
VERTEX
  8
129
  6
CONTINUOUS
 62
     7
 10
64.37947
 20
88.682838
 30
0.0
  0
VERTEX
  8
129
  6
CONTINUOUS
 62
     7
 10
64.379096
 20
88.652102
 30
0.0
  0
VERTEX
  8
129
  6
CONTINUOUS
 62
     7
 10
64.377988
 20
88.618877
 30
0.0
  0
VERTEX
  8
129
  6
CONTINUOUS
 62
     7
 10
64.376175
 20
88.583728
 30
0.0
  0
VERTEX
  8
129
  6
CONTINUOUS
 62
     7
 10
64.373724
 20
88.54723
 30
0.0
  0
VERTEX
  8
129
  6
CONTINUOUS
 62
     7
 10
64.370706
 20
88.509994
 30
0.0
  0
VERTEX
  8
129
  6
CONTINUOUS
 62
     7
 10
64.367175
 20
88.47278
 30
0.0
  0
VERTEX
  8
129
  6
CONTINUOUS
 62
     7
 10
64.363209
 20
88.436185
 30
0.0
  0
VERTEX
  8
129
  6
CONTINUOUS
 62
     7
 10
64.359012
 20
88.4
 30
0.0
  0
SEQEND
  0
LINE
  8
129
  6
CONTINUOUS
 62
     7
 10
64.359012
 20
88.8
 30
0.0
 11
64.281997
 21
88.8
 31
0.0
  0
POLYLINE
  8
129
  6
CONTINUOUS
 62
     7
 66
     1
  0
VERTEX
  8
129
  6
CONTINUOUS
 62
     7
 10
64.359012
 20
88.399998
 30
0.0
  0
VERTEX
  8
129
  6
CONTINUOUS
 62
     7
 10
64.361083
 20
88.417297
 30
0.0
  0
VERTEX
  8
129
  6
CONTINUOUS
 62
     7
 10
64.363114
 20
88.434777
 30
0.0
  0
VERTEX
  8
129
  6
CONTINUOUS
 62
     7
 10
64.365069
 20
88.45257
 30
0.0
  0
VERTEX
  8
129
  6
CONTINUOUS
 62
     7
 10
64.36694
 20
88.470607
 30
0.0
  0
VERTEX
  8
129
  6
CONTINUOUS
 62
     7
 10
64.368723
 20
88.488782
 30
0.0
  0
VERTEX
  8
129
  6
CONTINUOUS
 62
     7
 10
64.370407
 20
88.507044
 30
0.0
  0
VERTEX
  8
129
  6
CONTINUOUS
 62
     7
 10
64.37198
 20
88.525351
 30
0.0
  0
VERTEX
  8
129
  6
CONTINUOUS
 62
     7
 10
64.373432
 20
88.543647
 30
0.0
  0
VERTEX
  8
129
  6
CONTINUOUS
 62
     7
 10
64.374752
 20
88.561874
 30
0.0
  0
VERTEX
  8
129
  6
CONTINUOUS
 62
     7
 10
64.37593
 20
88.579971
 30
0.0
  0
VERTEX
  8
129
  6
CONTINUOUS
 62
     7
 10
64.376952
 20
88.597883
 30
0.0
  0
VERTEX
  8
129
  6
CONTINUOUS
 62
     7
 10
64.377818
 20
88.615574
 30
0.0
  0
VERTEX
  8
129
  6
CONTINUOUS
 62
     7
 10
64.378517
 20
88.632991
 30
0.0
  0
VERTEX
  8
129
  6
CONTINUOUS
 62
     7
 10
64.379012
 20
88.650012
 30
0.0
  0
VERTEX
  8
129
  6
CONTINUOUS
 62
     7
 10
64.379283
 20
88.666562
 30
0.0
  0
VERTEX
  8
129
  6
CONTINUOUS
 62
     7
 10
64.379429
 20
88.682843
 30
0.0
  0
SEQEND
  0
ARC
  8
129
  6
CONTINUOUS
 62
     7
 10
59.5
 20
89.0
 30
0.0
 40
4.895917
 50
347.615891
 51
352.96062
  0
POLYLINE
  8
129
  6
CONTINUOUS
 62
     7
 66
     1
  0
VERTEX
  8
129
  6
CONTINUOUS
 62
     7
 10
64.359012
 20
89.2
 30
0.0
  0
VERTEX
  8
129
  6
CONTINUOUS
 62
     7
 10
64.363209
 20
89.202195
 30
0.0
  0
VERTEX
  8
129
  6
CONTINUOUS
 62
     7
 10
64.367175
 20
89.206678
 30
0.0
  0
VERTEX
  8
129
  6
CONTINUOUS
 62
     7
 10
64.370706
 20
89.215291
 30
0.0
  0
VERTEX
  8
129
  6
CONTINUOUS
 62
     7
 10
64.373724
 20
89.228086
 30
0.0
  0
VERTEX
  8
129
  6
CONTINUOUS
 62
     7
 10
64.376175
 20
89.244735
 30
0.0
  0
VERTEX
  8
129
  6
CONTINUOUS
 62
     7
 10
64.377988
 20
89.265204
 30
0.0
  0
VERTEX
  8
129
  6
CONTINUOUS
 62
     7
 10
64.379096
 20
89.289456
 30
0.0
  0
VERTEX
  8
129
  6
CONTINUOUS
 62
     7
 10
64.37947
 20
89.317162
 30
0.0
  0
VERTEX
  8
129
  6
CONTINUOUS
 62
     7
 10
64.379096
 20
89.347898
 30
0.0
  0
VERTEX
  8
129
  6
CONTINUOUS
 62
     7
 10
64.377988
 20
89.381123
 30
0.0
  0
VERTEX
  8
129
  6
CONTINUOUS
 62
     7
 10
64.376175
 20
89.416272
 30
0.0
  0
VERTEX
  8
129
  6
CONTINUOUS
 62
     7
 10
64.373724
 20
89.45277
 30
0.0
  0
VERTEX
  8
129
  6
CONTINUOUS
 62
     7
 10
64.370706
 20
89.490006
 30
0.0
  0
VERTEX
  8
129
  6
CONTINUOUS
 62
     7
 10
64.367175
 20
89.52722
 30
0.0
  0
VERTEX
  8
129
  6
CONTINUOUS
 62
     7
 10
64.363209
 20
89.563815
 30
0.0
  0
VERTEX
  8
129
  6
CONTINUOUS
 62
     7
 10
64.359012
 20
89.6
 30
0.0
  0
SEQEND
  0
LINE
  8
129
  6
CONTINUOUS
 62
     7
 10
64.359012
 20
89.2
 30
0.0
 11
64.281997
 21
89.2
 31
0.0
  0
ARC
  8
129
  6
CONTINUOUS
 62
     7
 10
59.5
 20
89.0
 30
0.0
 40
4.895917
 50
7.039357
 51
12.384109
  0
LINE
  8
129
  6
CONTINUOUS
 62
     7
 10
64.281997
 20
87.95
 30
0.0
 11
64.286178
 21
87.95
 31
0.0
  0
ARC
  8
129
  6
CONTINUOUS
 62
     7
 10
59.5
 20
89.0
 30
0.0
 40
4.786178
 50
357.605084
 51
2.394916
  0
LINE
  8
129
  6
CONTINUOUS
 62
     7
 10
64.281997
 20
90.05
 30
0.0
 11
64.286178
 21
90.05
 31
0.0
  0
ARC
  8
129
  6
CONTINUOUS
 62
     7
 10
59.5
 20
89.0
 30
0.0
 40
4.9
 50
12.373625
 51
15.534066
  0
LINE
  8
129
  6
CONTINUOUS
 62
     7
 10
63.1
 20
90.75
 30
0.0
 11
63.7
 21
90.7
 31
0.0
  0
LINE
  8
129
  6
CONTINUOUS
 62
     7
 10
63.7
 20
87.3
 30
0.0
 11
63.1
 21
87.25
 31
0.0
  0
ARC
  8
129
  6
CONTINUOUS
 62
     7
 10
63.556893
 20
88.03622
 30
0.0
 40
0.75
 50
281.0
 51
332.311729
  0
ARC
  8
129
  6
CONTINUOUS
 62
     7
 10
59.5
 20
89.0
 30
0.0
 40
4.9
 50
344.465934
 51
347.626375
  0
LINE
  8
129
  6
CONTINUOUS
 62
     7
 10
64.22101
 20
89.0
 30
0.0
 11
63.7
 21
89.0
 31
0.0
  0
LINE
  8
129
  6
CONTINUOUS
 62
     7
 10
63.7
 20
90.7
 30
0.0
 11
63.7
 21
87.3
 31
0.0
  0
LINE
  8
129
  6
CONTINUOUS
 62
     7
 10
64.22101
 20
90.312275
 30
0.0
 11
64.22101
 21
87.687725
 31
0.0
  0
ARC
  8
129
  6
CONTINUOUS
 62
     7
 10
63.556893
 20
89.96378
 30
0.0
 40
0.75
 50
27.688271
 51
79.0
  0
LINE
  8
129
  6
CONTINUOUS
 62
     7
 10
63.518003
 20
116.05
 30
0.0
 11
63.513822
 21
116.05
 31
0.0
  0
ARC
  8
129
  6
CONTINUOUS
 62
     7
 10
68.3
 20
115.0
 30
0.0
 40
4.895917
 50
167.615891
 51
172.960665
  0
POLYLINE
  8
129
  6
CONTINUOUS
 62
     7
 66
     1
  0
VERTEX
  8
129
  6
CONTINUOUS
 62
     7
 10
63.440988
 20
115.2
 30
0.0
  0
VERTEX
  8
129
  6
CONTINUOUS
 62
     7
 10
63.43679
 20
115.202195
 30
0.0
  0
VERTEX
  8
129
  6
CONTINUOUS
 62
     7
 10
63.432825
 20
115.206678
 30
0.0
  0
VERTEX
  8
129
  6
CONTINUOUS
 62
     7
 10
63.429294
 20
115.215292
 30
0.0
  0
VERTEX
  8
129
  6
CONTINUOUS
 62
     7
 10
63.426275
 20
115.228086
 30
0.0
  0
VERTEX
  8
129
  6
CONTINUOUS
 62
     7
 10
63.423825
 20
115.244736
 30
0.0
  0
VERTEX
  8
129
  6
CONTINUOUS
 62
     7
 10
63.422012
 20
115.265205
 30
0.0
  0
VERTEX
  8
129
  6
CONTINUOUS
 62
     7
 10
63.420904
 20
115.289456
 30
0.0
  0
VERTEX
  8
129
  6
CONTINUOUS
 62
     7
 10
63.42053
 20
115.317162
 30
0.0
  0
VERTEX
  8
129
  6
CONTINUOUS
 62
     7
 10
63.420904
 20
115.347898
 30
0.0
  0
VERTEX
  8
129
  6
CONTINUOUS
 62
     7
 10
63.422012
 20
115.381123
 30
0.0
  0
VERTEX
  8
129
  6
CONTINUOUS
 62
     7
 10
63.423825
 20
115.416271
 30
0.0
  0
VERTEX
  8
129
  6
CONTINUOUS
 62
     7
 10
63.426275
 20
115.452769
 30
0.0
  0
VERTEX
  8
129
  6
CONTINUOUS
 62
     7
 10
63.429294
 20
115.490005
 30
0.0
  0
VERTEX
  8
129
  6
CONTINUOUS
 62
     7
 10
63.432825
 20
115.527219
 30
0.0
  0
VERTEX
  8
129
  6
CONTINUOUS
 62
     7
 10
63.43679
 20
115.563814
 30
0.0
  0
VERTEX
  8
129
  6
CONTINUOUS
 62
     7
 10
63.440988
 20
115.599998
 30
0.0
  0
SEQEND
  0
LINE
  8
129
  6
CONTINUOUS
 62
     7
 10
63.518003
 20
115.2
 30
0.0
 11
63.440988
 21
115.2
 31
0.0
  0
POLYLINE
  8
129
  6
CONTINUOUS
 62
     7
 66
     1
  0
VERTEX
  8
129
  6
CONTINUOUS
 62
     7
 10
63.440988
 20
114.4
 30
0.0
  0
VERTEX
  8
129
  6
CONTINUOUS
 62
     7
 10
63.436791
 20
114.436185
 30
0.0
  0
VERTEX
  8
129
  6
CONTINUOUS
 62
     7
 10
63.432825
 20
114.47278
 30
0.0
  0
VERTEX
  8
129
  6
CONTINUOUS
 62
     7
 10
63.429294
 20
114.509994
 30
0.0
  0
VERTEX
  8
129
  6
CONTINUOUS
 62
     7
 10
63.426276
 20
114.54723
 30
0.0
  0
VERTEX
  8
129
  6
CONTINUOUS
 62
     7
 10
63.423825
 20
114.583728
 30
0.0
  0
VERTEX
  8
129
  6
CONTINUOUS
 62
     7
 10
63.422012
 20
114.618877
 30
0.0
  0
VERTEX
  8
129
  6
CONTINUOUS
 62
     7
 10
63.420904
 20
114.652102
 30
0.0
  0
VERTEX
  8
129
  6
CONTINUOUS
 62
     7
 10
63.42053
 20
114.682838
 30
0.0
  0
VERTEX
  8
129
  6
CONTINUOUS
 62
     7
 10
63.420904
 20
114.710544
 30
0.0
  0
VERTEX
  8
129
  6
CONTINUOUS
 62
     7
 10
63.422012
 20
114.734796
 30
0.0
  0
VERTEX
  8
129
  6
CONTINUOUS
 62
     7
 10
63.423825
 20
114.755265
 30
0.0
  0
VERTEX
  8
129
  6
CONTINUOUS
 62
     7
 10
63.426276
 20
114.771914
 30
0.0
  0
VERTEX
  8
129
  6
CONTINUOUS
 62
     7
 10
63.429294
 20
114.784709
 30
0.0
  0
VERTEX
  8
129
  6
CONTINUOUS
 62
     7
 10
63.432825
 20
114.793322
 30
0.0
  0
VERTEX
  8
129
  6
CONTINUOUS
 62
     7
 10
63.436791
 20
114.797805
 30
0.0
  0
VERTEX
  8
129
  6
CONTINUOUS
 62
     7
 10
63.440988
 20
114.8
 30
0.0
  0
SEQEND
  0
ARC
  8
129
  6
CONTINUOUS
 62
     7
 10
68.3
 20
115.0
 30
0.0
 40
4.895917
 50
187.039357
 51
191.785706
  0
LINE
  8
129
  6
CONTINUOUS
 62
     7
 10
63.440988
 20
114.8
 30
0.0
 11
63.518003
 21
114.8
 31
0.0
  0
ARC
  8
129
  6
CONTINUOUS
 62
     7
 10
68.3
 20
115.0
 30
0.0
 40
4.786178
 50
177.605084
 51
182.394916
  0
LINE
  8
129
  6
CONTINUOUS
 62
     7
 10
64.1
 20
116.7
 30
0.0
 11
64.7
 21
116.75
 31
0.0
  0
ARC
  8
129
  6
CONTINUOUS
 62
     7
 10
64.243107
 20
115.96378
 30
0.0
 40
0.75
 50
101.0
 51
152.311729
  0
ARC
  8
129
  6
CONTINUOUS
 62
     7
 10
68.3
 20
115.0
 30
0.0
 40
4.9
 50
164.465934
 51
167.626375
  0
LINE
  8
129
  6
CONTINUOUS
 62
     7
 10
64.1
 20
116.7
 30
0.0
 11
64.1
 21
114.0
 31
0.0
  0
LINE
  8
129
  6
CONTINUOUS
 62
     7
 10
63.57899
 20
116.312275
 30
0.0
 11
63.57899
 21
114.0
 31
0.0
  0
LINE
  8
129
  6
CONTINUOUS
 62
     7
 10
63.57899
 20
115.0
 30
0.0
 11
64.1
 21
115.0
 31
0.0
  0
LINE
  8
129
  6
CONTINUOUS
 62
     7
 10
56.0
 20
108.085786
 30
0.0
 11
55.0
 21
108.085786
 31
0.0
  0
LINE
  8
129
  6
CONTINUOUS
 62
     7
 10
56.0
 20
110.914214
 30
0.0
 11
55.0
 21
110.914214
 31
0.0
  0
LINE
  8
129
  6
CONTINUOUS
 62
     7
 10
56.0
 20
110.914214
 30
0.0
 11
56.0
 21
109.481902
 31
0.0
  0
POLYLINE
  8
129
  6
CONTINUOUS
 62
     7
 66
     1
  0
VERTEX
  8
129
  6
CONTINUOUS
 62
     7
 10
57.0
 20
109.5
 30
0.0
  0
VERTEX
  8
129
  6
CONTINUOUS
 62
     7
 10
56.994514
 20
109.372057
 30
0.0
  0
VERTEX
  8
129
  6
CONTINUOUS
 62
     7
 10
56.983305
 20
109.242665
 30
0.0
  0
VERTEX
  8
129
  6
CONTINUOUS
 62
     7
 10
56.961772
 20
109.111089
 30
0.0
  0
VERTEX
  8
129
  6
CONTINUOUS
 62
     7
 10
56.929788
 20
108.979435
 30
0.0
  0
VERTEX
  8
129
  6
CONTINUOUS
 62
     7
 10
56.888166
 20
108.850395
 30
0.0
  0
VERTEX
  8
129
  6
CONTINUOUS
 62
     7
 10
56.836996
 20
108.726129
 30
0.0
  0
VERTEX
  8
129
  6
CONTINUOUS
 62
     7
 10
56.77637
 20
108.608662
 30
0.0
  0
VERTEX
  8
129
  6
CONTINUOUS
 62
     7
 10
56.707107
 20
108.5
 30
0.0
  0
VERTEX
  8
129
  6
CONTINUOUS
 62
     7
 10
56.630271
 20
108.402046
 30
0.0
  0
VERTEX
  8
129
  6
CONTINUOUS
 62
     7
 10
56.54721
 20
108.31631
 30
0.0
  0
VERTEX
  8
129
  6
CONTINUOUS
 62
     7
 10
56.45934
 20
108.243944
 30
0.0
  0
VERTEX
  8
129
  6
CONTINUOUS
 62
     7
 10
56.368095
 20
108.185081
 30
0.0
  0
VERTEX
  8
129
  6
CONTINUOUS
 62
     7
 10
56.275002
 20
108.139848
 30
0.0
  0
VERTEX
  8
129
  6
CONTINUOUS
 62
     7
 10
56.181963
 20
108.109396
 30
0.0
  0
VERTEX
  8
129
  6
CONTINUOUS
 62
     7
 10
56.090469
 20
108.093545
 30
0.0
  0
VERTEX
  8
129
  6
CONTINUOUS
 62
     7
 10
56.0
 20
108.085786
 30
0.0
  0
SEQEND
  0
POLYLINE
  8
129
  6
CONTINUOUS
 62
     7
 66
     1
  0
VERTEX
  8
129
  6
CONTINUOUS
 62
     7
 10
57.0
 20
109.5
 30
0.0
  0
VERTEX
  8
129
  6
CONTINUOUS
 62
     7
 10
56.994514
 20
109.627943
 30
0.0
  0
VERTEX
  8
129
  6
CONTINUOUS
 62
     7
 10
56.983305
 20
109.757335
 30
0.0
  0
VERTEX
  8
129
  6
CONTINUOUS
 62
     7
 10
56.961772
 20
109.888911
 30
0.0
  0
VERTEX
  8
129
  6
CONTINUOUS
 62
     7
 10
56.929788
 20
110.020565
 30
0.0
  0
VERTEX
  8
129
  6
CONTINUOUS
 62
     7
 10
56.888166
 20
110.149605
 30
0.0
  0
VERTEX
  8
129
  6
CONTINUOUS
 62
     7
 10
56.836996
 20
110.273871
 30
0.0
  0
VERTEX
  8
129
  6
CONTINUOUS
 62
     7
 10
56.77637
 20
110.391338
 30
0.0
  0
VERTEX
  8
129
  6
CONTINUOUS
 62
     7
 10
56.707107
 20
110.5
 30
0.0
  0
VERTEX
  8
129
  6
CONTINUOUS
 62
     7
 10
56.630271
 20
110.597954
 30
0.0
  0
VERTEX
  8
129
  6
CONTINUOUS
 62
     7
 10
56.54721
 20
110.68369
 30
0.0
  0
VERTEX
  8
129
  6
CONTINUOUS
 62
     7
 10
56.45934
 20
110.756056
 30
0.0
  0
VERTEX
  8
129
  6
CONTINUOUS
 62
     7
 10
56.368095
 20
110.814919
 30
0.0
  0
VERTEX
  8
129
  6
CONTINUOUS
 62
     7
 10
56.275002
 20
110.860152
 30
0.0
  0
VERTEX
  8
129
  6
CONTINUOUS
 62
     7
 10
56.181963
 20
110.890604
 30
0.0
  0
VERTEX
  8
129
  6
CONTINUOUS
 62
     7
 10
56.090469
 20
110.906455
 30
0.0
  0
VERTEX
  8
129
  6
CONTINUOUS
 62
     7
 10
56.0
 20
110.914214
 30
0.0
  0
SEQEND
  0
LINE
  8
129
  6
CONTINUOUS
 62
     7
 10
65.0
 20
118.0
 30
0.0
 11
62.8
 21
118.0
 31
0.0
  0
LINE
  8
129
  6
CONTINUOUS
 62
     7
 10
63.0
 20
86.5
 30
0.0
 11
63.0
 21
80.0
 31
0.0
  0
LINE
  8
129
  6
CONTINUOUS
 62
     7
 10
62.8
 20
118.0
 30
0.0
 11
62.8
 21
86.5
 31
0.0
  0
LINE
  8
129
  6
CONTINUOUS
 62
     7
 10
65.0
 20
125.0
 30
0.0
 11
65.0
 21
118.0
 31
0.0
  0
LINE
  8
129
  6
CONTINUOUS
 62
     7
 10
55.0
 20
125.0
 30
0.0
 11
65.0
 21
125.0
 31
0.0
  0
POLYLINE
  8
129
  6
CONTINUOUS
 62
     7
 66
     1
  0
VERTEX
  8
129
  6
CONTINUOUS
 62
     7
 10
56.45
 20
109.163704
 30
0.0
  0
VERTEX
  8
129
  6
CONTINUOUS
 62
     7
 10
56.447531
 20
109.192491
 30
0.0
  0
VERTEX
  8
129
  6
CONTINUOUS
 62
     7
 10
56.442487
 20
109.221604
 30
0.0
  0
VERTEX
  8
129
  6
CONTINUOUS
 62
     7
 10
56.432798
 20
109.251209
 30
0.0
  0
VERTEX
  8
129
  6
CONTINUOUS
 62
     7
 10
56.418405
 20
109.280831
 30
0.0
  0
VERTEX
  8
129
  6
CONTINUOUS
 62
     7
 10
56.399674
 20
109.309865
 30
0.0
  0
VERTEX
  8
129
  6
CONTINUOUS
 62
     7
 10
56.376648
 20
109.337825
 30
0.0
  0
VERTEX
  8
129
  6
CONTINUOUS
 62
     7
 10
56.349367
 20
109.364255
 30
0.0
  0
VERTEX
  8
129
  6
CONTINUOUS
 62
     7
 10
56.318198
 20
109.388704
 30
0.0
  0
VERTEX
  8
129
  6
CONTINUOUS
 62
     7
 10
56.283622
 20
109.410743
 30
0.0
  0
VERTEX
  8
129
  6
CONTINUOUS
 62
     7
 10
56.246244
 20
109.430034
 30
0.0
  0
VERTEX
  8
129
  6
CONTINUOUS
 62
     7
 10
56.206703
 20
109.446316
 30
0.0
  0
VERTEX
  8
129
  6
CONTINUOUS
 62
     7
 10
56.165643
 20
109.45956
 30
0.0
  0
VERTEX
  8
129
  6
CONTINUOUS
 62
     7
 10
56.123751
 20
109.469738
 30
0.0
  0
VERTEX
  8
129
  6
CONTINUOUS
 62
     7
 10
56.081883
 20
109.476589
 30
0.0
  0
VERTEX
  8
129
  6
CONTINUOUS
 62
     7
 10
56.040711
 20
109.480156
 30
0.0
  0
VERTEX
  8
129
  6
CONTINUOUS
 62
     7
 10
56.0
 20
109.481902
 30
0.0
  0
SEQEND
  0
POLYLINE
  8
129
  6
CONTINUOUS
 62
     7
 66
     1
  0
VERTEX
  8
129
  6
CONTINUOUS
 62
     7
 10
56.75
 20
108.951572
 30
0.0
  0
VERTEX
  8
129
  6
CONTINUOUS
 62
     7
 10
56.745885
 20
108.99955
 30
0.0
  0
VERTEX
  8
129
  6
CONTINUOUS
 62
     7
 10
56.737479
 20
109.048072
 30
0.0
  0
VERTEX
  8
129
  6
CONTINUOUS
 62
     7
 10
56.721329
 20
109.097413
 30
0.0
  0
VERTEX
  8
129
  6
CONTINUOUS
 62
     7
 10
56.697341
 20
109.146783
 30
0.0
  0
VERTEX
  8
129
  6
CONTINUOUS
 62
     7
 10
56.666124
 20
109.195174
 30
0.0
  0
VERTEX
  8
129
  6
CONTINUOUS
 62
     7
 10
56.627747
 20
109.241773
 30
0.0
  0
VERTEX
  8
129
  6
CONTINUOUS
 62
     7
 10
56.582278
 20
109.285823
 30
0.0
  0
VERTEX
  8
129
  6
CONTINUOUS
 62
     7
 10
56.53033
 20
109.326572
 30
0.0
  0
VERTEX
  8
129
  6
CONTINUOUS
 62
     7
 10
56.472704
 20
109.363304
 30
0.0
  0
VERTEX
  8
129
  6
CONTINUOUS
 62
     7
 10
56.410407
 20
109.395455
 30
0.0
  0
VERTEX
  8
129
  6
CONTINUOUS
 62
     7
 10
56.344505
 20
109.422592
 30
0.0
  0
VERTEX
  8
129
  6
CONTINUOUS
 62
     7
 10
56.276071
 20
109.444666
 30
0.0
  0
VERTEX
  8
129
  6
CONTINUOUS
 62
     7
 10
56.206251
 20
109.461628
 30
0.0
  0
VERTEX
  8
129
  6
CONTINUOUS
 62
     7
 10
56.136472
 20
109.473048
 30
0.0
  0
VERTEX
  8
129
  6
CONTINUOUS
 62
     7
 10
56.067852
 20
109.478992
 30
0.0
  0
VERTEX
  8
129
  6
CONTINUOUS
 62
     7
 10
56.0
 20
109.481902
 30
0.0
  0
SEQEND
  0
POLYLINE
  8
129
  6
CONTINUOUS
 62
     7
 66
     1
  0
VERTEX
  8
129
  6
CONTINUOUS
 62
     7
 10
55.55
 20
109.163704
 30
0.0
  0
VERTEX
  8
129
  6
CONTINUOUS
 62
     7
 10
55.552469
 20
109.192491
 30
0.0
  0
VERTEX
  8
129
  6
CONTINUOUS
 62
     7
 10
55.557513
 20
109.221604
 30
0.0
  0
VERTEX
  8
129
  6
CONTINUOUS
 62
     7
 10
55.567202
 20
109.251209
 30
0.0
  0
VERTEX
  8
129
  6
CONTINUOUS
 62
     7
 10
55.581595
 20
109.280831
 30
0.0
  0
VERTEX
  8
129
  6
CONTINUOUS
 62
     7
 10
55.600326
 20
109.309865
 30
0.0
  0
VERTEX
  8
129
  6
CONTINUOUS
 62
     7
 10
55.623352
 20
109.337825
 30
0.0
  0
VERTEX
  8
129
  6
CONTINUOUS
 62
     7
 10
55.650633
 20
109.364255
 30
0.0
  0
VERTEX
  8
129
  6
CONTINUOUS
 62
     7
 10
55.681802
 20
109.388704
 30
0.0
  0
VERTEX
  8
129
  6
CONTINUOUS
 62
     7
 10
55.716378
 20
109.410743
 30
0.0
  0
VERTEX
  8
129
  6
CONTINUOUS
 62
     7
 10
55.753756
 20
109.430034
 30
0.0
  0
VERTEX
  8
129
  6
CONTINUOUS
 62
     7
 10
55.793297
 20
109.446316
 30
0.0
  0
VERTEX
  8
129
  6
CONTINUOUS
 62
     7
 10
55.834357
 20
109.45956
 30
0.0
  0
VERTEX
  8
129
  6
CONTINUOUS
 62
     7
 10
55.876249
 20
109.469738
 30
0.0
  0
VERTEX
  8
129
  6
CONTINUOUS
 62
     7
 10
55.918117
 20
109.476589
 30
0.0
  0
VERTEX
  8
129
  6
CONTINUOUS
 62
     7
 10
55.959289
 20
109.480156
 30
0.0
  0
VERTEX
  8
129
  6
CONTINUOUS
 62
     7
 10
56.0
 20
109.481902
 30
0.0
  0
SEQEND
  0
POLYLINE
  8
129
  6
CONTINUOUS
 62
     7
 66
     1
  0
VERTEX
  8
129
  6
CONTINUOUS
 62
     7
 10
55.25
 20
108.951572
 30
0.0
  0
VERTEX
  8
129
  6
CONTINUOUS
 62
     7
 10
55.254115
 20
108.99955
 30
0.0
  0
VERTEX
  8
129
  6
CONTINUOUS
 62
     7
 10
55.262521
 20
109.048072
 30
0.0
  0
VERTEX
  8
129
  6
CONTINUOUS
 62
     7
 10
55.278671
 20
109.097413
 30
0.0
  0
VERTEX
  8
129
  6
CONTINUOUS
 62
     7
 10
55.302659
 20
109.146783
 30
0.0
  0
VERTEX
  8
129
  6
CONTINUOUS
 62
     7
 10
55.333876
 20
109.195174
 30
0.0
  0
VERTEX
  8
129
  6
CONTINUOUS
 62
     7
 10
55.372253
 20
109.241773
 30
0.0
  0
VERTEX
  8
129
  6
CONTINUOUS
 62
     7
 10
55.417722
 20
109.285823
 30
0.0
  0
VERTEX
  8
129
  6
CONTINUOUS
 62
     7
 10
55.46967
 20
109.326572
 30
0.0
  0
VERTEX
  8
129
  6
CONTINUOUS
 62
     7
 10
55.527296
 20
109.363304
 30
0.0
  0
VERTEX
  8
129
  6
CONTINUOUS
 62
     7
 10
55.589593
 20
109.395455
 30
0.0
  0
VERTEX
  8
129
  6
CONTINUOUS
 62
     7
 10
55.655495
 20
109.422592
 30
0.0
  0
VERTEX
  8
129
  6
CONTINUOUS
 62
     7
 10
55.723929
 20
109.444666
 30
0.0
  0
VERTEX
  8
129
  6
CONTINUOUS
 62
     7
 10
55.793749
 20
109.461628
 30
0.0
  0
VERTEX
  8
129
  6
CONTINUOUS
 62
     7
 10
55.863528
 20
109.473048
 30
0.0
  0
VERTEX
  8
129
  6
CONTINUOUS
 62
     7
 10
55.932148
 20
109.478992
 30
0.0
  0
VERTEX
  8
129
  6
CONTINUOUS
 62
     7
 10
56.0
 20
109.481902
 30
0.0
  0
SEQEND
  0
LINE
  8
129
  6
CONTINUOUS
 62
     7
 10
55.25
 20
108.085786
 30
0.0
 11
55.25
 21
108.951572
 31
0.0
  0
POLYLINE
  8
129
  6
CONTINUOUS
 62
     7
 66
     1
  0
VERTEX
  8
129
  6
CONTINUOUS
 62
     7
 10
56.0
 20
108.845506
 30
0.0
  0
VERTEX
  8
129
  6
CONTINUOUS
 62
     7
 10
55.959289
 20
108.847251
 30
0.0
  0
VERTEX
  8
129
  6
CONTINUOUS
 62
     7
 10
55.918117
 20
108.850818
 30
0.0
  0
VERTEX
  8
129
  6
CONTINUOUS
 62
     7
 10
55.876249
 20
108.85767
 30
0.0
  0
VERTEX
  8
129
  6
CONTINUOUS
 62
     7
 10
55.834357
 20
108.867847
 30
0.0
  0
VERTEX
  8
129
  6
CONTINUOUS
 62
     7
 10
55.793297
 20
108.881091
 30
0.0
  0
VERTEX
  8
129
  6
CONTINUOUS
 62
     7
 10
55.753756
 20
108.897373
 30
0.0
  0
VERTEX
  8
129
  6
CONTINUOUS
 62
     7
 10
55.716378
 20
108.916664
 30
0.0
  0
VERTEX
  8
129
  6
CONTINUOUS
 62
     7
 10
55.681802
 20
108.938704
 30
0.0
  0
VERTEX
  8
129
  6
CONTINUOUS
 62
     7
 10
55.650633
 20
108.963152
 30
0.0
  0
VERTEX
  8
129
  6
CONTINUOUS
 62
     7
 10
55.623352
 20
108.989583
 30
0.0
  0
VERTEX
  8
129
  6
CONTINUOUS
 62
     7
 10
55.600326
 20
109.017542
 30
0.0
  0
VERTEX
  8
129
  6
CONTINUOUS
 62
     7
 10
55.581595
 20
109.046577
 30
0.0
  0
VERTEX
  8
129
  6
CONTINUOUS
 62
     7
 10
55.567202
 20
109.076199
 30
0.0
  0
VERTEX
  8
129
  6
CONTINUOUS
 62
     7
 10
55.557513
 20
109.105803
 30
0.0
  0
VERTEX
  8
129
  6
CONTINUOUS
 62
     7
 10
55.552469
 20
109.134916
 30
0.0
  0
VERTEX
  8
129
  6
CONTINUOUS
 62
     7
 10
55.55
 20
109.163704
 30
0.0
  0
SEQEND
  0
POLYLINE
  8
129
  6
CONTINUOUS
 62
     7
 66
     1
  0
VERTEX
  8
129
  6
CONTINUOUS
 62
     7
 10
56.0
 20
108.421242
 30
0.0
  0
VERTEX
  8
129
  6
CONTINUOUS
 62
     7
 10
55.932148
 20
108.424151
 30
0.0
  0
VERTEX
  8
129
  6
CONTINUOUS
 62
     7
 10
55.863528
 20
108.430095
 30
0.0
  0
VERTEX
  8
129
  6
CONTINUOUS
 62
     7
 10
55.793749
 20
108.441515
 30
0.0
  0
VERTEX
  8
129
  6
CONTINUOUS
 62
     7
 10
55.723929
 20
108.458477
 30
0.0
  0
VERTEX
  8
129
  6
CONTINUOUS
 62
     7
 10
55.655495
 20
108.480551
 30
0.0
  0
VERTEX
  8
129
  6
CONTINUOUS
 62
     7
 10
55.589593
 20
108.507688
 30
0.0
  0
VERTEX
  8
129
  6
CONTINUOUS
 62
     7
 10
55.527296
 20
108.539839
 30
0.0
  0
VERTEX
  8
129
  6
CONTINUOUS
 62
     7
 10
55.46967
 20
108.576572
 30
0.0
  0
VERTEX
  8
129
  6
CONTINUOUS
 62
     7
 10
55.417722
 20
108.61732
 30
0.0
  0
VERTEX
  8
129
  6
CONTINUOUS
 62
     7
 10
55.372253
 20
108.66137
 30
0.0
  0
VERTEX
  8
129
  6
CONTINUOUS
 62
     7
 10
55.333876
 20
108.70797
 30
0.0
  0
VERTEX
  8
129
  6
CONTINUOUS
 62
     7
 10
55.302659
 20
108.75636
 30
0.0
  0
VERTEX
  8
129
  6
CONTINUOUS
 62
     7
 10
55.278671
 20
108.80573
 30
0.0
  0
VERTEX
  8
129
  6
CONTINUOUS
 62
     7
 10
55.262521
 20
108.855071
 30
0.0
  0
VERTEX
  8
129
  6
CONTINUOUS
 62
     7
 10
55.254115
 20
108.903593
 30
0.0
  0
VERTEX
  8
129
  6
CONTINUOUS
 62
     7
 10
55.25
 20
108.951572
 30
0.0
  0
SEQEND
  0
POLYLINE
  8
129
  6
CONTINUOUS
 62
     7
 66
     1
  0
VERTEX
  8
129
  6
CONTINUOUS
 62
     7
 10
56.45
 20
109.163704
 30
0.0
  0
VERTEX
  8
129
  6
CONTINUOUS
 62
     7
 10
56.447531
 20
109.134916
 30
0.0
  0
VERTEX
  8
129
  6
CONTINUOUS
 62
     7
 10
56.442487
 20
109.105803
 30
0.0
  0
VERTEX
  8
129
  6
CONTINUOUS
 62
     7
 10
56.432798
 20
109.076199
 30
0.0
  0
VERTEX
  8
129
  6
CONTINUOUS
 62
     7
 10
56.418405
 20
109.046577
 30
0.0
  0
VERTEX
  8
129
  6
CONTINUOUS
 62
     7
 10
56.399674
 20
109.017542
 30
0.0
  0
VERTEX
  8
129
  6
CONTINUOUS
 62
     7
 10
56.376648
 20
108.989583
 30
0.0
  0
VERTEX
  8
129
  6
CONTINUOUS
 62
     7
 10
56.349367
 20
108.963152
 30
0.0
  0
VERTEX
  8
129
  6
CONTINUOUS
 62
     7
 10
56.318198
 20
108.938704
 30
0.0
  0
VERTEX
  8
129
  6
CONTINUOUS
 62
     7
 10
56.283622
 20
108.916664
 30
0.0
  0
VERTEX
  8
129
  6
CONTINUOUS
 62
     7
 10
56.246244
 20
108.897373
 30
0.0
  0
VERTEX
  8
129
  6
CONTINUOUS
 62
     7
 10
56.206703
 20
108.881091
 30
0.0
  0
VERTEX
  8
129
  6
CONTINUOUS
 62
     7
 10
56.165643
 20
108.867847
 30
0.0
  0
VERTEX
  8
129
  6
CONTINUOUS
 62
     7
 10
56.123751
 20
108.85767
 30
0.0
  0
VERTEX
  8
129
  6
CONTINUOUS
 62
     7
 10
56.081883
 20
108.850818
 30
0.0
  0
VERTEX
  8
129
  6
CONTINUOUS
 62
     7
 10
56.040711
 20
108.847251
 30
0.0
  0
VERTEX
  8
129
  6
CONTINUOUS
 62
     7
 10
56.0
 20
108.845506
 30
0.0
  0
SEQEND
  0
POLYLINE
  8
129
  6
CONTINUOUS
 62
     7
 66
     1
  0
VERTEX
  8
129
  6
CONTINUOUS
 62
     7
 10
56.75
 20
108.951572
 30
0.0
  0
VERTEX
  8
129
  6
CONTINUOUS
 62
     7
 10
56.745885
 20
108.903593
 30
0.0
  0
VERTEX
  8
129
  6
CONTINUOUS
 62
     7
 10
56.737479
 20
108.855071
 30
0.0
  0
VERTEX
  8
129
  6
CONTINUOUS
 62
     7
 10
56.721329
 20
108.80573
 30
0.0
  0
VERTEX
  8
129
  6
CONTINUOUS
 62
     7
 10
56.697341
 20
108.75636
 30
0.0
  0
VERTEX
  8
129
  6
CONTINUOUS
 62
     7
 10
56.666124
 20
108.70797
 30
0.0
  0
VERTEX
  8
129
  6
CONTINUOUS
 62
     7
 10
56.627747
 20
108.66137
 30
0.0
  0
VERTEX
  8
129
  6
CONTINUOUS
 62
     7
 10
56.582278
 20
108.61732
 30
0.0
  0
VERTEX
  8
129
  6
CONTINUOUS
 62
     7
 10
56.53033
 20
108.576572
 30
0.0
  0
VERTEX
  8
129
  6
CONTINUOUS
 62
     7
 10
56.472704
 20
108.539839
 30
0.0
  0
VERTEX
  8
129
  6
CONTINUOUS
 62
     7
 10
56.410407
 20
108.507688
 30
0.0
  0
VERTEX
  8
129
  6
CONTINUOUS
 62
     7
 10
56.344505
 20
108.480551
 30
0.0
  0
VERTEX
  8
129
  6
CONTINUOUS
 62
     7
 10
56.276071
 20
108.458477
 30
0.0
  0
VERTEX
  8
129
  6
CONTINUOUS
 62
     7
 10
56.206251
 20
108.441515
 30
0.0
  0
VERTEX
  8
129
  6
CONTINUOUS
 62
     7
 10
56.136472
 20
108.430095
 30
0.0
  0
VERTEX
  8
129
  6
CONTINUOUS
 62
     7
 10
56.067852
 20
108.424151
 30
0.0
  0
VERTEX
  8
129
  6
CONTINUOUS
 62
     7
 10
56.0
 20
108.421242
 30
0.0
  0
SEQEND
  0
LINE
  8
129
  6
CONTINUOUS
 62
     7
 10
56.75
 20
108.564586
 30
0.0
 11
56.75
 21
108.951572
 31
0.0
  0
LINE
  8
129
  6
CONTINUOUS
 62
     7
 10
65.0
 20
112.852001
 30
0.0
 11
63.1
 21
91.134901
 31
0.0
  0
LINE
  8
129
  6
CONTINUOUS
 62
     7
 10
62.8
 20
91.147999
 30
0.0
 11
64.7
 21
112.865099
 31
0.0
  0
LINE
  8
129
  6
CONTINUOUS
 62
     7
 10
64.7
 20
117.5
 30
0.0
 11
64.7
 21
112.865099
 31
0.0
  0
LINE
  8
129
  6
CONTINUOUS
 62
     7
 10
64.7
 20
115.5
 30
0.0
 11
65.0
 21
115.5
 31
0.0
  0
LINE
  8
129
  6
CONTINUOUS
 62
     7
 10
64.7
 20
117.5
 30
0.0
 11
70.0
 21
117.5
 31
0.0
  0
LINE
  8
129
  6
CONTINUOUS
 62
     7
 10
63.1
 20
86.5
 30
0.0
 11
63.1
 21
91.134901
 31
0.0
  0
LINE
  8
129
  6
CONTINUOUS
 62
     7
 10
62.8
 20
86.5
 30
0.0
 11
63.1
 21
86.5
 31
0.0
  0
LINE
  8
129
  6
CONTINUOUS
 62
     7
 10
62.8
 20
88.5
 30
0.0
 11
63.1
 21
88.5
 31
0.0
  0
LINE
  8
129
  6
CONTINUOUS
 62
     7
 10
82.0
 20
75.0
 30
0.0
 11
82.0
 21
80.0
 31
0.0
  0
LINE
  8
129
  6
CONTINUOUS
 62
     7
 10
79.0
 20
75.0
 30
0.0
 11
79.0
 21
80.0
 31
0.0
  0
LINE
  8
129
  6
CONTINUOUS
 62
     7
 10
55.0
 20
80.0
 30
0.0
 11
82.0
 21
80.0
 31
0.0
  0
LINE
  8
129
  6
CONTINUOUS
 62
     7
 10
55.0
 20
75.0
 30
0.0
 11
55.0
 21
125.0
 31
0.0
  0
LINE
  8
129
  6
CONTINUOUS
 62
     7
 10
55.0
 20
75.0
 30
0.0
 11
82.0
 21
75.0
 31
0.0
  0
LINE
  8
0
  6
LTYPE1
 62
     6
 10
75.0
 20
86.0
 30
0.0
 11
75.0
 21
69.0
 31
0.0
  0
LINE
  8
133
  6
CONTINUOUS
 62
     7
 10
187.2
 20
110.677124
 30
0.0
 11
185.491423
 21
110.677124
 31
0.0
  0
LINE
  8
133
  6
CONTINUOUS
 62
     7
 10
185.190277
 20
110.677124
 30
0.0
 11
185.0
 21
110.677124
 31
0.0
  0
LINE
  8
133
  6
CONTINUOUS
 62
     7
 10
187.2
 20
113.322876
 30
0.0
 11
185.988495
 21
113.322876
 31
0.0
  0
LINE
  8
133
  6
CONTINUOUS
 62
     7
 10
187.143601
 20
114.0
 30
0.0
 11
187.2
 21
113.932787
 31
0.0
  0
LINE
  8
133
  6
CONTINUOUS
 62
     7
 10
186.492703
 20
114.0
 30
0.0
 11
187.143601
 21
114.0
 31
0.0
  0
LINE
  8
133
  6
CONTINUOUS
 62
     7
 10
185.0
 20
110.0
 30
0.0
 11
185.249518
 21
110.0
 31
0.0
  0
LINE
  8
133
  6
CONTINUOUS
 62
     7
 10
185.550664
 20
110.0
 30
0.0
 11
187.2
 21
110.0
 31
0.0
  0
LINE
  8
133
  6
CONTINUOUS
 62
     7
 10
180.0
 20
92.5
 30
0.0
 11
185.0
 21
92.5
 31
0.0
  0
LINE
  8
133
  6
CONTINUOUS
 62
     7
 10
180.0
 20
93.0
 30
0.0
 11
185.0
 21
93.0
 31
0.0
  0
LINE
  8
133
  6
CONTINUOUS
 62
     7
 10
180.0
 20
117.0
 30
0.0
 11
185.0
 21
117.0
 31
0.0
  0
LINE
  8
133
  6
CONTINUOUS
 62
     7
 10
185.0
 20
117.5
 30
0.0
 11
185.0
 21
92.5
 31
0.0
  0
LINE
  8
133
  6
CONTINUOUS
 62
     7
 10
180.0
 20
92.5
 30
0.0
 11
180.0
 21
117.5
 31
0.0
  0
LINE
  8
133
  6
CONTINUOUS
 62
     7
 10
187.2
 20
96.677124
 30
0.0
 11
186.716264
 21
96.677124
 31
0.0
  0
LINE
  8
133
  6
CONTINUOUS
 62
     7
 10
186.415118
 20
96.677124
 30
0.0
 11
185.0
 21
96.677124
 31
0.0
  0
LINE
  8
133
  6
CONTINUOUS
 62
     7
 10
187.2
 20
99.322876
 30
0.0
 11
186.484791
 21
99.322876
 31
0.0
  0
LINE
  8
133
  6
CONTINUOUS
 62
     7
 10
186.183645
 20
99.322876
 30
0.0
 11
185.0
 21
99.322876
 31
0.0
  0
LINE
  8
133
  6
CONTINUOUS
 62
     7
 10
187.143601
 20
100.0
 30
0.0
 11
187.2
 21
99.932787
 31
0.0
  0
LINE
  8
133
  6
CONTINUOUS
 62
     7
 10
185.0
 20
100.0
 30
0.0
 11
186.124404
 21
100.0
 31
0.0
  0
LINE
  8
133
  6
CONTINUOUS
 62
     7
 10
186.42555
 20
100.0
 30
0.0
 11
187.143601
 21
100.0
 31
0.0
  0
LINE
  8
133
  6
CONTINUOUS
 62
     7
 10
185.0
 20
96.0
 30
0.0
 11
186.474359
 21
96.0
 31
0.0
  0
LINE
  8
133
  6
CONTINUOUS
 62
     7
 10
186.775505
 20
96.0
 30
0.0
 11
187.2
 21
96.0
 31
0.0
  0
LINE
  8
133
  6
CONTINUOUS
 62
     7
 10
185.640988
 20
89.2
 30
0.0
 11
185.718003
 21
89.2
 31
0.0
  0
POLYLINE
  8
133
  6
CONTINUOUS
 62
     7
 66
     1
  0
VERTEX
  8
133
  6
CONTINUOUS
 62
     7
 10
185.640988
 20
89.599998
 30
0.0
  0
VERTEX
  8
133
  6
CONTINUOUS
 62
     7
 10
185.63679
 20
89.563814
 30
0.0
  0
VERTEX
  8
133
  6
CONTINUOUS
 62
     7
 10
185.632825
 20
89.527219
 30
0.0
  0
VERTEX
  8
133
  6
CONTINUOUS
 62
     7
 10
185.629294
 20
89.490005
 30
0.0
  0
VERTEX
  8
133
  6
CONTINUOUS
 62
     7
 10
185.626275
 20
89.452769
 30
0.0
  0
VERTEX
  8
133
  6
CONTINUOUS
 62
     7
 10
185.623825
 20
89.416271
 30
0.0
  0
VERTEX
  8
133
  6
CONTINUOUS
 62
     7
 10
185.622012
 20
89.381123
 30
0.0
  0
VERTEX
  8
133
  6
CONTINUOUS
 62
     7
 10
185.620904
 20
89.347898
 30
0.0
  0
VERTEX
  8
133
  6
CONTINUOUS
 62
     7
 10
185.62053
 20
89.317162
 30
0.0
  0
VERTEX
  8
133
  6
CONTINUOUS
 62
     7
 10
185.620904
 20
89.289456
 30
0.0
  0
VERTEX
  8
133
  6
CONTINUOUS
 62
     7
 10
185.622012
 20
89.265205
 30
0.0
  0
VERTEX
  8
133
  6
CONTINUOUS
 62
     7
 10
185.623825
 20
89.244736
 30
0.0
  0
VERTEX
  8
133
  6
CONTINUOUS
 62
     7
 10
185.626275
 20
89.228086
 30
0.0
  0
VERTEX
  8
133
  6
CONTINUOUS
 62
     7
 10
185.629294
 20
89.215292
 30
0.0
  0
VERTEX
  8
133
  6
CONTINUOUS
 62
     7
 10
185.632825
 20
89.206678
 30
0.0
  0
VERTEX
  8
133
  6
CONTINUOUS
 62
     7
 10
185.63679
 20
89.202195
 30
0.0
  0
VERTEX
  8
133
  6
CONTINUOUS
 62
     7
 10
185.640988
 20
89.2
 30
0.0
  0
SEQEND
  0
ARC
  8
133
  6
CONTINUOUS
 62
     7
 10
190.5
 20
89.0
 30
0.0
 40
4.895917
 50
167.615891
 51
172.960665
  0
LINE
  8
133
  6
CONTINUOUS
 62
     7
 10
185.718003
 20
90.05
 30
0.0
 11
185.713822
 21
90.05
 31
0.0
  0
LINE
  8
133
  6
CONTINUOUS
 62
     7
 10
185.718003
 20
87.95
 30
0.0
 11
185.713822
 21
87.95
 31
0.0
  0
ARC
  8
133
  6
CONTINUOUS
 62
     7
 10
190.5
 20
89.0
 30
0.0
 40
4.895917
 50
187.039357
 51
192.384109
  0
POLYLINE
  8
133
  6
CONTINUOUS
 62
     7
 66
     1
  0
VERTEX
  8
133
  6
CONTINUOUS
 62
     7
 10
185.640988
 20
88.8
 30
0.0
  0
VERTEX
  8
133
  6
CONTINUOUS
 62
     7
 10
185.636791
 20
88.797805
 30
0.0
  0
VERTEX
  8
133
  6
CONTINUOUS
 62
     7
 10
185.632825
 20
88.793322
 30
0.0
  0
VERTEX
  8
133
  6
CONTINUOUS
 62
     7
 10
185.629294
 20
88.784709
 30
0.0
  0
VERTEX
  8
133
  6
CONTINUOUS
 62
     7
 10
185.626276
 20
88.771914
 30
0.0
  0
VERTEX
  8
133
  6
CONTINUOUS
 62
     7
 10
185.623825
 20
88.755265
 30
0.0
  0
VERTEX
  8
133
  6
CONTINUOUS
 62
     7
 10
185.622012
 20
88.734796
 30
0.0
  0
VERTEX
  8
133
  6
CONTINUOUS
 62
     7
 10
185.620904
 20
88.710544
 30
0.0
  0
VERTEX
  8
133
  6
CONTINUOUS
 62
     7
 10
185.62053
 20
88.682838
 30
0.0
  0
VERTEX
  8
133
  6
CONTINUOUS
 62
     7
 10
185.620904
 20
88.652102
 30
0.0
  0
VERTEX
  8
133
  6
CONTINUOUS
 62
     7
 10
185.622012
 20
88.618877
 30
0.0
  0
VERTEX
  8
133
  6
CONTINUOUS
 62
     7
 10
185.623825
 20
88.583728
 30
0.0
  0
VERTEX
  8
133
  6
CONTINUOUS
 62
     7
 10
185.626276
 20
88.54723
 30
0.0
  0
VERTEX
  8
133
  6
CONTINUOUS
 62
     7
 10
185.629294
 20
88.509994
 30
0.0
  0
VERTEX
  8
133
  6
CONTINUOUS
 62
     7
 10
185.632825
 20
88.47278
 30
0.0
  0
VERTEX
  8
133
  6
CONTINUOUS
 62
     7
 10
185.636791
 20
88.436185
 30
0.0
  0
VERTEX
  8
133
  6
CONTINUOUS
 62
     7
 10
185.640988
 20
88.4
 30
0.0
  0
SEQEND
  0
LINE
  8
133
  6
CONTINUOUS
 62
     7
 10
185.718003
 20
88.8
 30
0.0
 11
185.640988
 21
88.8
 31
0.0
  0
ARC
  8
133
  6
CONTINUOUS
 62
     7
 10
190.5
 20
89.0
 30
0.0
 40
4.786178
 50
177.605084
 51
182.394916
  0
ARC
  8
133
  6
CONTINUOUS
 62
     7
 10
190.5
 20
89.0
 30
0.0
 40
4.9
 50
164.465934
 51
167.626375
  0
LINE
  8
133
  6
CONTINUOUS
 62
     7
 10
186.9
 20
90.75
 30
0.0
 11
186.3
 21
90.7
 31
0.0
  0
LINE
  8
133
  6
CONTINUOUS
 62
     7
 10
185.77899
 20
89.0
 30
0.0
 11
186.3
 21
89.0
 31
0.0
  0
LINE
  8
133
  6
CONTINUOUS
 62
     7
 10
186.3
 20
87.3
 30
0.0
 11
186.3
 21
90.7
 31
0.0
  0
LINE
  8
133
  6
CONTINUOUS
 62
     7
 10
185.77899
 20
87.687725
 30
0.0
 11
185.77899
 21
90.312275
 31
0.0
  0
LINE
  8
133
  6
CONTINUOUS
 62
     7
 10
186.3
 20
87.3
 30
0.0
 11
186.9
 21
87.25
 31
0.0
  0
ARC
  8
133
  6
CONTINUOUS
 62
     7
 10
186.443107
 20
88.03622
 30
0.0
 40
0.75
 50
207.688271
 51
259.0
  0
ARC
  8
133
  6
CONTINUOUS
 62
     7
 10
190.5
 20
89.0
 30
0.0
 40
4.9
 50
192.373625
 51
195.534066
  0
ARC
  8
133
  6
CONTINUOUS
 62
     7
 10
186.443107
 20
89.96378
 30
0.0
 40
0.75
 50
101.0
 51
152.311729
  0
LINE
  8
133
  6
CONTINUOUS
 62
     7
 10
186.481997
 20
116.05
 30
0.0
 11
186.486178
 21
116.05
 31
0.0
  0
ARC
  8
133
  6
CONTINUOUS
 62
     7
 10
181.7
 20
115.0
 30
0.0
 40
4.895917
 50
7.039335
 51
12.384109
  0
POLYLINE
  8
133
  6
CONTINUOUS
 62
     7
 66
     1
  0
VERTEX
  8
133
  6
CONTINUOUS
 62
     7
 10
186.559012
 20
115.2
 30
0.0
  0
VERTEX
  8
133
  6
CONTINUOUS
 62
     7
 10
186.56321
 20
115.202195
 30
0.0
  0
VERTEX
  8
133
  6
CONTINUOUS
 62
     7
 10
186.567175
 20
115.206678
 30
0.0
  0
VERTEX
  8
133
  6
CONTINUOUS
 62
     7
 10
186.570706
 20
115.215292
 30
0.0
  0
VERTEX
  8
133
  6
CONTINUOUS
 62
     7
 10
186.573725
 20
115.228086
 30
0.0
  0
VERTEX
  8
133
  6
CONTINUOUS
 62
     7
 10
186.576175
 20
115.244736
 30
0.0
  0
VERTEX
  8
133
  6
CONTINUOUS
 62
     7
 10
186.577988
 20
115.265205
 30
0.0
  0
VERTEX
  8
133
  6
CONTINUOUS
 62
     7
 10
186.579096
 20
115.289456
 30
0.0
  0
VERTEX
  8
133
  6
CONTINUOUS
 62
     7
 10
186.57947
 20
115.317162
 30
0.0
  0
VERTEX
  8
133
  6
CONTINUOUS
 62
     7
 10
186.579096
 20
115.347898
 30
0.0
  0
VERTEX
  8
133
  6
CONTINUOUS
 62
     7
 10
186.577988
 20
115.381123
 30
0.0
  0
VERTEX
  8
133
  6
CONTINUOUS
 62
     7
 10
186.576175
 20
115.416271
 30
0.0
  0
VERTEX
  8
133
  6
CONTINUOUS
 62
     7
 10
186.573725
 20
115.452769
 30
0.0
  0
VERTEX
  8
133
  6
CONTINUOUS
 62
     7
 10
186.570706
 20
115.490005
 30
0.0
  0
VERTEX
  8
133
  6
CONTINUOUS
 62
     7
 10
186.567175
 20
115.527219
 30
0.0
  0
VERTEX
  8
133
  6
CONTINUOUS
 62
     7
 10
186.56321
 20
115.563814
 30
0.0
  0
VERTEX
  8
133
  6
CONTINUOUS
 62
     7
 10
186.559012
 20
115.599998
 30
0.0
  0
SEQEND
  0
LINE
  8
133
  6
CONTINUOUS
 62
     7
 10
186.481997
 20
115.2
 30
0.0
 11
186.559012
 21
115.2
 31
0.0
  0
POLYLINE
  8
133
  6
CONTINUOUS
 62
     7
 66
     1
  0
VERTEX
  8
133
  6
CONTINUOUS
 62
     7
 10
186.559012
 20
114.4
 30
0.0
  0
VERTEX
  8
133
  6
CONTINUOUS
 62
     7
 10
186.563209
 20
114.436185
 30
0.0
  0
VERTEX
  8
133
  6
CONTINUOUS
 62
     7
 10
186.567175
 20
114.47278
 30
0.0
  0
VERTEX
  8
133
  6
CONTINUOUS
 62
     7
 10
186.570706
 20
114.509994
 30
0.0
  0
VERTEX
  8
133
  6
CONTINUOUS
 62
     7
 10
186.573724
 20
114.54723
 30
0.0
  0
VERTEX
  8
133
  6
CONTINUOUS
 62
     7
 10
186.576175
 20
114.583728
 30
0.0
  0
VERTEX
  8
133
  6
CONTINUOUS
 62
     7
 10
186.577988
 20
114.618877
 30
0.0
  0
VERTEX
  8
133
  6
CONTINUOUS
 62
     7
 10
186.579096
 20
114.652102
 30
0.0
  0
VERTEX
  8
133
  6
CONTINUOUS
 62
     7
 10
186.57947
 20
114.682838
 30
0.0
  0
VERTEX
  8
133
  6
CONTINUOUS
 62
     7
 10
186.579096
 20
114.710544
 30
0.0
  0
VERTEX
  8
133
  6
CONTINUOUS
 62
     7
 10
186.577988
 20
114.734796
 30
0.0
  0
VERTEX
  8
133
  6
CONTINUOUS
 62
     7
 10
186.576175
 20
114.755265
 30
0.0
  0
VERTEX
  8
133
  6
CONTINUOUS
 62
     7
 10
186.573724
 20
114.771914
 30
0.0
  0
VERTEX
  8
133
  6
CONTINUOUS
 62
     7
 10
186.570706
 20
114.784709
 30
0.0
  0
VERTEX
  8
133
  6
CONTINUOUS
 62
     7
 10
186.567175
 20
114.793322
 30
0.0
  0
VERTEX
  8
133
  6
CONTINUOUS
 62
     7
 10
186.563209
 20
114.797805
 30
0.0
  0
VERTEX
  8
133
  6
CONTINUOUS
 62
     7
 10
186.559012
 20
114.8
 30
0.0
  0
SEQEND
  0
ARC
  8
133
  6
CONTINUOUS
 62
     7
 10
181.7
 20
115.0
 30
0.0
 40
4.895917
 50
347.615891
 51
352.960643
  0
LINE
  8
133
  6
CONTINUOUS
 62
     7
 10
186.559012
 20
114.8
 30
0.0
 11
186.481997
 21
114.8
 31
0.0
  0
LINE
  8
133
  6
CONTINUOUS
 62
     7
 10
186.481997
 20
113.95
 30
0.0
 11
186.486178
 21
113.95
 31
0.0
  0
ARC
  8
133
  6
CONTINUOUS
 62
     7
 10
181.7
 20
115.0
 30
0.0
 40
4.786178
 50
357.605084
 51
2.394916
  0
LINE
  8
133
  6
CONTINUOUS
 62
     7
 10
185.9
 20
116.7
 30
0.0
 11
185.3
 21
116.75
 31
0.0
  0
ARC
  8
133
  6
CONTINUOUS
 62
     7
 10
185.756893
 20
115.96378
 30
0.0
 40
0.75
 50
27.688271
 51
79.0
  0
ARC
  8
133
  6
CONTINUOUS
 62
     7
 10
181.7
 20
115.0
 30
0.0
 40
4.9
 50
12.373625
 51
15.534066
  0
LINE
  8
133
  6
CONTINUOUS
 62
     7
 10
185.9
 20
113.3
 30
0.0
 11
185.3
 21
113.25
 31
0.0
  0
ARC
  8
133
  6
CONTINUOUS
 62
     7
 10
185.756893
 20
114.03622
 30
0.0
 40
0.75
 50
281.0
 51
332.311729
  0
ARC
  8
133
  6
CONTINUOUS
 62
     7
 10
181.7
 20
115.0
 30
0.0
 40
4.9
 50
344.465934
 51
347.626375
  0
LINE
  8
133
  6
CONTINUOUS
 62
     7
 10
185.9
 20
116.7
 30
0.0
 11
185.9
 21
113.3
 31
0.0
  0
LINE
  8
133
  6
CONTINUOUS
 62
     7
 10
186.42101
 20
116.312275
 30
0.0
 11
186.42101
 21
113.687725
 31
0.0
  0
LINE
  8
133
  6
CONTINUOUS
 62
     7
 10
186.42101
 20
115.0
 30
0.0
 11
185.9
 21
115.0
 31
0.0
  0
LINE
  8
133
  6
CONTINUOUS
 62
     7
 10
194.0
 20
139.326
 30
0.0
 11
193.5
 21
139.826
 31
0.0
  0
LINE
  8
133
  6
CONTINUOUS
 62
     7
 10
186.0
 20
139.326
 30
0.0
 11
186.5
 21
139.826
 31
0.0
  0
LINE
  8
133
  6
CONTINUOUS
 62
     7
 10
194.0
 20
139.326
 30
0.0
 11
186.0
 21
139.326
 31
0.0
  0
LINE
  8
133
  6
CONTINUOUS
 62
     7
 10
186.5
 20
139.826
 30
0.0
 11
193.5
 21
139.826
 31
0.0
  0
LINE
  8
133
  6
CONTINUOUS
 62
     7
 10
194.0
 20
130.326
 30
0.0
 11
193.5
 21
129.826
 31
0.0
  0
LINE
  8
133
  6
CONTINUOUS
 62
     7
 10
186.0
 20
130.326
 30
0.0
 11
186.5
 21
129.826
 31
0.0
  0
LINE
  8
133
  6
CONTINUOUS
 62
     7
 10
186.0
 20
130.326
 30
0.0
 11
194.0
 21
130.326
 31
0.0
  0
LINE
  8
133
  6
CONTINUOUS
 62
     7
 10
193.5
 20
129.826
 30
0.0
 11
186.5
 21
129.826
 31
0.0
  0
LINE
  8
133
  6
CONTINUOUS
 62
     7
 10
194.0
 20
130.326
 30
0.0
 11
194.0
 21
139.326
 31
0.0
  0
LINE
  8
133
  6
CONTINUOUS
 62
     7
 10
186.0
 20
130.326
 30
0.0
 11
186.0
 21
139.326
 31
0.0
  0
LINE
  8
133
  6
CONTINUOUS
 62
     7
 10
187.2
 20
118.0
 30
0.0
 11
185.0
 21
118.0
 31
0.0
  0
LINE
  8
133
  6
CONTINUOUS
 62
     7
 10
187.2
 20
86.5
 30
0.0
 11
187.2
 21
118.0
 31
0.0
  0
LINE
  8
133
  6
CONTINUOUS
 62
     7
 10
187.0
 20
80.0
 30
0.0
 11
187.0
 21
86.5
 31
0.0
  0
LINE
  8
133
  6
CONTINUOUS
 62
     7
 10
185.0
 20
125.0
 30
0.0
 11
185.0
 21
118.0
 31
0.0
  0
LINE
  8
133
  6
CONTINUOUS
 62
     7
 10
195.0
 20
125.0
 30
0.0
 11
185.0
 21
125.0
 31
0.0
  0
LINE
  8
133
  6
CONTINUOUS
 62
     7
 10
192.8
 20
129.826
 30
0.0
 11
193.0
 21
129.626
 31
0.0
  0
LINE
  8
133
  6
CONTINUOUS
 62
     7
 10
193.0
 20
125.5
 30
0.0
 11
193.0
 21
129.626
 31
0.0
  0
LINE
  8
133
  6
CONTINUOUS
 62
     7
 10
187.2
 20
129.826
 30
0.0
 11
187.0
 21
129.626
 31
0.0
  0
LINE
  8
133
  6
CONTINUOUS
 62
     7
 10
187.0
 20
125.5
 30
0.0
 11
187.0
 21
129.626
 31
0.0
  0
LINE
  8
133
  6
CONTINUOUS
 62
     7
 10
193.0
 20
129.626
 30
0.0
 11
187.0
 21
129.626
 31
0.0
  0
LINE
  8
133
  6
CONTINUOUS
 62
     7
 10
185.5
 20
125.5
 30
0.0
 11
185.5
 21
125.0
 31
0.0
  0
LINE
  8
133
  6
CONTINUOUS
 62
     7
 10
194.5
 20
125.5
 30
0.0
 11
194.5
 21
125.0
 31
0.0
  0
LINE
  8
133
  6
CONTINUOUS
 62
     7
 10
194.5
 20
125.5
 30
0.0
 11
185.5
 21
125.5
 31
0.0
  0
LINE
  8
133
  6
CONTINUOUS
 62
     7
 10
185.0
 20
112.852001
 30
0.0
 11
186.9
 21
91.134901
 31
0.0
  0
LINE
  8
133
  6
CONTINUOUS
 62
     7
 10
187.2
 20
91.147999
 30
0.0
 11
185.3
 21
112.865099
 31
0.0
  0
LINE
  8
133
  6
CONTINUOUS
 62
     7
 10
185.3
 20
117.5
 30
0.0
 11
185.3
 21
112.865099
 31
0.0
  0
LINE
  8
133
  6
CONTINUOUS
 62
     7
 10
185.3
 20
117.5
 30
0.0
 11
180.0
 21
117.5
 31
0.0
  0
LINE
  8
133
  6
CONTINUOUS
 62
     7
 10
185.3
 20
115.5
 30
0.0
 11
185.0
 21
115.5
 31
0.0
  0
LINE
  8
133
  6
CONTINUOUS
 62
     7
 10
186.9
 20
86.5
 30
0.0
 11
186.9
 21
91.134901
 31
0.0
  0
LINE
  8
133
  6
CONTINUOUS
 62
     7
 10
187.2
 20
86.5
 30
0.0
 11
186.9
 21
86.5
 31
0.0
  0
LINE
  8
133
  6
CONTINUOUS
 62
     7
 10
187.2
 20
88.5
 30
0.0
 11
186.9
 21
88.5
 31
0.0
  0
LINE
  8
133
  6
CONTINUOUS
 62
     7
 10
168.0
 20
80.0
 30
0.0
 11
168.0
 21
75.0
 31
0.0
  0
LINE
  8
133
  6
CONTINUOUS
 62
     7
 10
171.0
 20
75.0
 30
0.0
 11
171.0
 21
80.0
 31
0.0
  0
LINE
  8
133
  6
CONTINUOUS
 62
     7
 10
195.0
 20
80.0
 30
0.0
 11
168.0
 21
80.0
 31
0.0
  0
LINE
  8
133
  6
CONTINUOUS
 62
     7
 10
195.0
 20
75.0
 30
0.0
 11
195.0
 21
125.0
 31
0.0
  0
LINE
  8
133
  6
CONTINUOUS
 62
     7
 10
195.0
 20
75.0
 30
0.0
 11
168.0
 21
75.0
 31
0.0
  0
LINE
  8
0
  6
LTYPE1
 62
     6
 10
175.0
 20
86.0
 30
0.0
 11
175.0
 21
69.0
 31
0.0
  0
CIRCLE
  8
130
  6
CONTINUOUS
 62
     7
 10
117.0
 20
32.0
 30
0.0
 40
2.75
  0
CIRCLE
  8
130
  6
CONTINUOUS
 62
     7
 10
117.0
 20
32.0
 30
0.0
 40
2.45
  0
LINE
  8
130
  6
CONTINUOUS
 62
     7
 10
117.0
 20
30.556624
 30
0.0
 11
115.75
 21
31.278312
 31
0.0
  0
LINE
  8
130
  6
CONTINUOUS
 62
     7
 10
115.75
 20
32.721688
 30
0.0
 11
115.75
 21
31.278312
 31
0.0
  0
LINE
  8
130
  6
CONTINUOUS
 62
     7
 10
117.0
 20
33.443376
 30
0.0
 11
115.75
 21
32.721688
 31
0.0
  0
LINE
  8
130
  6
CONTINUOUS
 62
     7
 10
118.25
 20
32.721688
 30
0.0
 11
117.0
 21
33.443376
 31
0.0
  0
LINE
  8
130
  6
CONTINUOUS
 62
     7
 10
118.25
 20
31.278312
 30
0.0
 11
118.25
 21
32.721688
 31
0.0
  0
LINE
  8
130
  6
CONTINUOUS
 62
     7
 10
117.0
 20
30.556624
 30
0.0
 11
118.25
 21
31.278312
 31
0.0
  0
CIRCLE
  8
130
  6
CONTINUOUS
 62
     7
 10
133.0
 20
32.0
 30
0.0
 40
2.75
  0
CIRCLE
  8
130
  6
CONTINUOUS
 62
     7
 10
133.0
 20
32.0
 30
0.0
 40
2.45
  0
LINE
  8
130
  6
CONTINUOUS
 62
     7
 10
133.0
 20
30.556624
 30
0.0
 11
131.75
 21
31.278312
 31
0.0
  0
LINE
  8
130
  6
CONTINUOUS
 62
     7
 10
131.75
 20
32.721688
 30
0.0
 11
131.75
 21
31.278312
 31
0.0
  0
LINE
  8
130
  6
CONTINUOUS
 62
     7
 10
133.0
 20
33.443376
 30
0.0
 11
131.75
 21
32.721688
 31
0.0
  0
LINE
  8
130
  6
CONTINUOUS
 62
     7
 10
134.25
 20
32.721688
 30
0.0
 11
133.0
 21
33.443376
 31
0.0
  0
LINE
  8
130
  6
CONTINUOUS
 62
     7
 10
134.25
 20
31.278312
 30
0.0
 11
134.25
 21
32.721688
 31
0.0
  0
LINE
  8
130
  6
CONTINUOUS
 62
     7
 10
133.0
 20
30.556624
 30
0.0
 11
134.25
 21
31.278312
 31
0.0
  0
CIRCLE
  8
130
  6
CONTINUOUS
 62
     7
 10
125.0
 20
48.0
 30
0.0
 40
3.0
  0
LINE
  8
130
  6
CONTINUOUS
 62
     7
 10
115.5
 20
55.0
 30
0.0
 11
134.5
 21
55.0
 31
0.0
  0
CIRCLE
  8
130
  6
CONTINUOUS
 62
     7
 10
133.0
 20
32.0
 30
0.0
 40
3.0
  0
CIRCLE
  8
130
  6
CONTINUOUS
 62
     7
 10
117.0
 20
32.0
 30
0.0
 40
3.0
  0
LINE
  8
130
  6
CONTINUOUS
 62
     7
 10
137.5
 20
52.0
 30
0.0
 11
134.5
 21
55.0
 31
0.0
  0
LINE
  8
130
  6
CONTINUOUS
 62
     7
 10
115.5
 20
55.0
 30
0.0
 11
112.5
 21
52.0
 31
0.0
  0
LINE
  8
130
  6
CONTINUOUS
 62
     7
 10
137.5
 20
28.0
 30
0.0
 11
137.5
 21
52.0
 31
0.0
  0
LINE
  8
130
  6
CONTINUOUS
 62
     7
 10
112.5
 20
28.0
 30
0.0
 11
137.5
 21
28.0
 31
0.0
  0
LINE
  8
130
  6
CONTINUOUS
 62
     7
 10
112.5
 20
28.0
 30
0.0
 11
112.5
 21
52.0
 31
0.0
  0
CIRCLE
  8
0
  6
CONTINUOUS
 62
     7
 10
125.0
 20
48.0
 30
0.0
 40
2.5
  0
LINE
  8
0
  6
LTYPE1
 62
     2
 10
142.5
 20
48.0
 30
0.0
 11
107.5
 21
48.0
 31
0.0
  0
LINE
  8
134
  6
CONTINUOUS
 62
     7
 10
257.0
 20
139.326
 30
0.0
 11
256.5
 21
139.826
 31
0.0
  0
LINE
  8
134
  6
CONTINUOUS
 62
     7
 10
249.0
 20
139.326
 30
0.0
 11
249.5
 21
139.826
 31
0.0
  0
LINE
  8
134
  6
CONTINUOUS
 62
     7
 10
257.0
 20
139.326
 30
0.0
 11
249.0
 21
139.326
 31
0.0
  0
LINE
  8
134
  6
CONTINUOUS
 62
     7
 10
249.5
 20
139.826
 30
0.0
 11
256.5
 21
139.826
 31
0.0
  0
LINE
  8
134
  6
CONTINUOUS
 62
     7
 10
257.0
 20
130.326
 30
0.0
 11
256.5
 21
129.826
 31
0.0
  0
LINE
  8
134
  6
CONTINUOUS
 62
     7
 10
249.0
 20
130.326
 30
0.0
 11
249.5
 21
129.826
 31
0.0
  0
LINE
  8
134
  6
CONTINUOUS
 62
     7
 10
257.0
 20
130.326
 30
0.0
 11
249.0
 21
130.326
 31
0.0
  0
LINE
  8
134
  6
CONTINUOUS
 62
     7
 10
256.5
 20
129.826
 30
0.0
 11
249.5
 21
129.826
 31
0.0
  0
LINE
  8
134
  6
CONTINUOUS
 62
     7
 10
257.0
 20
130.326
 30
0.0
 11
257.0
 21
139.326
 31
0.0
  0
LINE
  8
134
  6
CONTINUOUS
 62
     7
 10
249.0
 20
130.326
 30
0.0
 11
249.0
 21
139.326
 31
0.0
  0
ARC
  8
134
  6
CONTINUOUS
 62
     7
 10
252.0
 20
104.0
 30
0.0
 40
1.5
 50
75.0
 51
195.0
  0
ARC
  8
134
  6
CONTINUOUS
 62
     7
 10
252.0
 20
104.0
 30
0.0
 40
1.5
 50
255.0
 51
15.0
  0
ARC
  8
134
  6
CONTINUOUS
 62
     7
 10
246.0
 20
98.0
 30
0.0
 40
1.5
 50
75.0
 51
195.0
  0
ARC
  8
134
  6
CONTINUOUS
 62
     7
 10
246.0
 20
98.0
 30
0.0
 40
1.5
 50
255.0
 51
15.0
  0
LINE
  8
134
  6
CONTINUOUS
 62
     7
 10
257.5
 20
125.5
 30
0.0
 11
248.5
 21
125.5
 31
0.0
  0
LINE
  8
134
  6
CONTINUOUS
 62
     7
 10
256.0
 20
129.626
 30
0.0
 11
250.0
 21
129.626
 31
0.0
  0
LINE
  8
134
  6
CONTINUOUS
 62
     7
 10
255.8
 20
129.826
 30
0.0
 11
256.0
 21
129.626
 31
0.0
  0
LINE
  8
134
  6
CONTINUOUS
 62
     7
 10
256.0
 20
125.5
 30
0.0
 11
256.0
 21
129.626
 31
0.0
  0
LINE
  8
134
  6
CONTINUOUS
 62
     7
 10
250.0
 20
129.626
 30
0.0
 11
250.2
 21
129.826
 31
0.0
  0
LINE
  8
134
  6
CONTINUOUS
 62
     7
 10
250.0
 20
125.5
 30
0.0
 11
250.0
 21
129.626
 31
0.0
  0
LINE
  8
134
  6
CONTINUOUS
 62
     7
 10
252.133975
 20
98.0
 30
0.0
 11
252.566987
 21
97.25
 31
0.0
  0
LINE
  8
134
  6
CONTINUOUS
 62
     7
 10
253.433013
 20
97.25
 30
0.0
 11
252.566987
 21
97.25
 31
0.0
  0
LINE
  8
134
  6
CONTINUOUS
 62
     7
 10
253.866025
 20
98.0
 30
0.0
 11
253.433013
 21
97.25
 31
0.0
  0
LINE
  8
134
  6
CONTINUOUS
 62
     7
 10
253.433013
 20
98.75
 30
0.0
 11
253.866025
 21
98.0
 31
0.0
  0
LINE
  8
134
  6
CONTINUOUS
 62
     7
 10
252.566987
 20
98.75
 30
0.0
 11
253.433013
 21
98.75
 31
0.0
  0
LINE
  8
134
  6
CONTINUOUS
 62
     7
 10
252.133975
 20
98.0
 30
0.0
 11
252.566987
 21
98.75
 31
0.0
  0
CIRCLE
  8
134
  6
CONTINUOUS
 62
     7
 10
253.0
 20
98.0
 30
0.0
 40
1.3
  0
LINE
  8
134
  6
CONTINUOUS
 62
     7
 10
241.0
 20
139.326
 30
0.0
 11
240.5
 21
139.826
 31
0.0
  0
LINE
  8
134
  6
CONTINUOUS
 62
     7
 10
233.0
 20
139.326
 30
0.0
 11
233.5
 21
139.826
 31
0.0
  0
LINE
  8
134
  6
CONTINUOUS
 62
     7
 10
241.0
 20
139.326
 30
0.0
 11
233.0
 21
139.326
 31
0.0
  0
LINE
  8
134
  6
CONTINUOUS
 62
     7
 10
233.5
 20
139.826
 30
0.0
 11
240.5
 21
139.826
 31
0.0
  0
LINE
  8
134
  6
CONTINUOUS
 62
     7
 10
241.0
 20
130.326
 30
0.0
 11
240.5
 21
129.826
 31
0.0
  0
LINE
  8
134
  6
CONTINUOUS
 62
     7
 10
233.0
 20
130.326
 30
0.0
 11
233.5
 21
129.826
 31
0.0
  0
LINE
  8
134
  6
CONTINUOUS
 62
     7
 10
241.0
 20
130.326
 30
0.0
 11
233.0
 21
130.326
 31
0.0
  0
LINE
  8
134
  6
CONTINUOUS
 62
     7
 10
240.5
 20
129.826
 30
0.0
 11
233.5
 21
129.826
 31
0.0
  0
LINE
  8
134
  6
CONTINUOUS
 62
     7
 10
241.0
 20
130.326
 30
0.0
 11
241.0
 21
139.326
 31
0.0
  0
LINE
  8
134
  6
CONTINUOUS
 62
     7
 10
233.0
 20
130.326
 30
0.0
 11
233.0
 21
139.326
 31
0.0
  0
CIRCLE
  8
134
  6
CONTINUOUS
 62
     7
 10
253.0
 20
98.0
 30
0.0
 40
1.5
  0
LINE
  8
134
  6
CONTINUOUS
 62
     7
 10
243.728675
 20
94.314461
 30
0.0
 11
245.36128
 21
95.947066
 31
0.0
  0
LINE
  8
134
  6
CONTINUOUS
 62
     7
 10
251.36128
 20
101.947066
 30
0.0
 11
248.052934
 21
98.63872
 31
0.0
  0
LINE
  8
134
  6
CONTINUOUS
 62
     7
 10
257.5
 20
108.085786
 30
0.0
 11
254.052934
 21
104.63872
 31
0.0
  0
LINE
  8
134
  6
CONTINUOUS
 62
     7
 10
243.728675
 20
94.314461
 30
0.0
 11
242.314461
 21
95.728675
 31
0.0
  0
LINE
  8
134
  6
CONTINUOUS
 62
     7
 10
242.314461
 20
95.728675
 30
0.0
 11
243.947066
 21
97.36128
 31
0.0
  0
LINE
  8
134
  6
CONTINUOUS
 62
     7
 10
249.947066
 20
103.36128
 30
0.0
 11
246.63872
 21
100.052934
 31
0.0
  0
LINE
  8
134
  6
CONTINUOUS
 62
     7
 10
257.5
 20
110.914214
 30
0.0
 11
252.63872
 21
106.052934
 31
0.0
  0
POLYLINE
  8
134
  6
CONTINUOUS
 62
     7
 66
     1
  0
VERTEX
  8
134
  6
CONTINUOUS
 62
     7
 10
245.104822
 20
96.044162
 30
0.0
  0
VERTEX
  8
134
  6
CONTINUOUS
 62
     7
 10
245.121533
 20
96.036466
 30
0.0
  0
VERTEX
  8
134
  6
CONTINUOUS
 62
     7
 10
245.138185
 20
96.028911
 30
0.0
  0
VERTEX
  8
134
  6
CONTINUOUS
 62
     7
 10
245.154731
 20
96.021609
 30
0.0
  0
VERTEX
  8
134
  6
CONTINUOUS
 62
     7
 10
245.171175
 20
96.014551
 30
0.0
  0
VERTEX
  8
134
  6
CONTINUOUS
 62
     7
 10
245.187529
 20
96.007707
 30
0.0
  0
VERTEX
  8
134
  6
CONTINUOUS
 62
     7
 10
245.203792
 20
96.00108
 30
0.0
  0
VERTEX
  8
134
  6
CONTINUOUS
 62
     7
 10
245.219961
 20
95.994677
 30
0.0
  0
VERTEX
  8
134
  6
CONTINUOUS
 62
     7
 10
245.236036
 20
95.988498
 30
0.0
  0
VERTEX
  8
134
  6
CONTINUOUS
 62
     7
 10
245.252018
 20
95.98254
 30
0.0
  0
VERTEX
  8
134
  6
CONTINUOUS
 62
     7
 10
245.267907
 20
95.976806
 30
0.0
  0
VERTEX
  8
134
  6
CONTINUOUS
 62
     7
 10
245.283701
 20
95.971296
 30
0.0
  0
VERTEX
  8
134
  6
CONTINUOUS
 62
     7
 10
245.299404
 20
95.966003
 30
0.0
  0
VERTEX
  8
134
  6
CONTINUOUS
 62
     7
 10
245.315018
 20
95.960925
 30
0.0
  0
VERTEX
  8
134
  6
CONTINUOUS
 62
     7
 10
245.330529
 20
95.95609
 30
0.0
  0
VERTEX
  8
134
  6
CONTINUOUS
 62
     7
 10
245.345934
 20
95.951508
 30
0.0
  0
VERTEX
  8
134
  6
CONTINUOUS
 62
     7
 10
245.36128
 20
95.947066
 30
0.0
  0
SEQEND
  0
POLYLINE
  8
134
  6
CONTINUOUS
 62
     7
 66
     1
  0
VERTEX
  8
134
  6
CONTINUOUS
 62
     7
 10
244.044885
 20
97.105545
 30
0.0
  0
VERTEX
  8
134
  6
CONTINUOUS
 62
     7
 10
244.043139
 20
97.109377
 30
0.0
  0
VERTEX
  8
134
  6
CONTINUOUS
 62
     7
 10
244.041407
 20
97.113191
 30
0.0
  0
VERTEX
  8
134
  6
CONTINUOUS
 62
     7
 10
244.039698
 20
97.116973
 30
0.0
  0
VERTEX
  8
134
  6
CONTINUOUS
 62
     7
 10
244.038013
 20
97.120726
 30
0.0
  0
VERTEX
  8
134
  6
CONTINUOUS
 62
     7
 10
244.036349
 20
97.124451
 30
0.0
  0
VERTEX
  8
134
  6
CONTINUOUS
 62
     7
 10
244.034704
 20
97.128149
 30
0.0
  0
VERTEX
  8
134
  6
CONTINUOUS
 62
     7
 10
244.033081
 20
97.131818
 30
0.0
  0
VERTEX
  8
134
  6
CONTINUOUS
 62
     7
 10
244.031479
 20
97.135458
 30
0.0
  0
VERTEX
  8
134
  6
CONTINUOUS
 62
     7
 10
244.029897
 20
97.139069
 30
0.0
  0
VERTEX
  8
134
  6
CONTINUOUS
 62
     7
 10
244.028336
 20
97.142651
 30
0.0
  0
VERTEX
  8
134
  6
CONTINUOUS
 62
     7
 10
244.026796
 20
97.146203
 30
0.0
  0
VERTEX
  8
134
  6
CONTINUOUS
 62
     7
 10
244.025275
 20
97.149727
 30
0.0
  0
VERTEX
  8
134
  6
CONTINUOUS
 62
     7
 10
244.023774
 20
97.153221
 30
0.0
  0
VERTEX
  8
134
  6
CONTINUOUS
 62
     7
 10
244.022295
 20
97.156683
 30
0.0
  0
VERTEX
  8
134
  6
CONTINUOUS
 62
     7
 10
244.020839
 20
97.16011
 30
0.0
  0
VERTEX
  8
134
  6
CONTINUOUS
 62
     7
 10
244.019395
 20
97.163518
 30
0.0
  0
SEQEND
  0
POLYLINE
  8
134
  6
CONTINUOUS
 62
     7
 66
     1
  0
VERTEX
  8
134
  6
CONTINUOUS
 62
     7
 10
244.019395
 20
97.163518
 30
0.0
  0
VERTEX
  8
134
  6
CONTINUOUS
 62
     7
 10
244.013851
 20
97.176785
 30
0.0
  0
VERTEX
  8
134
  6
CONTINUOUS
 62
     7
 10
244.008396
 20
97.189973
 30
0.0
  0
VERTEX
  8
134
  6
CONTINUOUS
 62
     7
 10
244.0031
 20
97.203021
 30
0.0
  0
VERTEX
  8
134
  6
CONTINUOUS
 62
     7
 10
243.997957
 20
97.215933
 30
0.0
  0
VERTEX
  8
134
  6
CONTINUOUS
 62
     7
 10
243.992949
 20
97.228726
 30
0.0
  0
VERTEX
  8
134
  6
CONTINUOUS
 62
     7
 10
243.988077
 20
97.241397
 30
0.0
  0
VERTEX
  8
134
  6
CONTINUOUS
 62
     7
 10
243.983347
 20
97.253944
 30
0.0
  0
VERTEX
  8
134
  6
CONTINUOUS
 62
     7
 10
243.978757
 20
97.266365
 30
0.0
  0
VERTEX
  8
134
  6
CONTINUOUS
 62
     7
 10
243.974306
 20
97.278664
 30
0.0
  0
VERTEX
  8
134
  6
CONTINUOUS
 62
     7
 10
243.969995
 20
97.290838
 30
0.0
  0
VERTEX
  8
134
  6
CONTINUOUS
 62
     7
 10
243.965826
 20
97.302886
 30
0.0
  0
VERTEX
  8
134
  6
CONTINUOUS
 62
     7
 10
243.961793
 20
97.314814
 30
0.0
  0
VERTEX
  8
134
  6
CONTINUOUS
 62
     7
 10
243.957895
 20
97.326623
 30
0.0
  0
VERTEX
  8
134
  6
CONTINUOUS
 62
     7
 10
243.95415
 20
97.338295
 30
0.0
  0
VERTEX
  8
134
  6
CONTINUOUS
 62
     7
 10
243.950564
 20
97.349827
 30
0.0
  0
VERTEX
  8
134
  6
CONTINUOUS
 62
     7
 10
243.947066
 20
97.36128
 30
0.0
  0
SEQEND
  0
POLYLINE
  8
134
  6
CONTINUOUS
 62
     7
 66
     1
  0
VERTEX
  8
134
  6
CONTINUOUS
 62
     7
 10
247.955838
 20
98.895178
 30
0.0
  0
VERTEX
  8
134
  6
CONTINUOUS
 62
     7
 10
247.963534
 20
98.878467
 30
0.0
  0
VERTEX
  8
134
  6
CONTINUOUS
 62
     7
 10
247.971089
 20
98.861815
 30
0.0
  0
VERTEX
  8
134
  6
CONTINUOUS
 62
     7
 10
247.978391
 20
98.845269
 30
0.0
  0
VERTEX
  8
134
  6
CONTINUOUS
 62
     7
 10
247.985449
 20
98.828825
 30
0.0
  0
VERTEX
  8
134
  6
CONTINUOUS
 62
     7
 10
247.992293
 20
98.812471
 30
0.0
  0
VERTEX
  8
134
  6
CONTINUOUS
 62
     7
 10
247.99892
 20
98.796208
 30
0.0
  0
VERTEX
  8
134
  6
CONTINUOUS
 62
     7
 10
248.005323
 20
98.780039
 30
0.0
  0
VERTEX
  8
134
  6
CONTINUOUS
 62
     7
 10
248.011502
 20
98.763964
 30
0.0
  0
VERTEX
  8
134
  6
CONTINUOUS
 62
     7
 10
248.01746
 20
98.747982
 30
0.0
  0
VERTEX
  8
134
  6
CONTINUOUS
 62
     7
 10
248.023194
 20
98.732093
 30
0.0
  0
VERTEX
  8
134
  6
CONTINUOUS
 62
     7
 10
248.028704
 20
98.716299
 30
0.0
  0
VERTEX
  8
134
  6
CONTINUOUS
 62
     7
 10
248.033997
 20
98.700596
 30
0.0
  0
VERTEX
  8
134
  6
CONTINUOUS
 62
     7
 10
248.039075
 20
98.684982
 30
0.0
  0
VERTEX
  8
134
  6
CONTINUOUS
 62
     7
 10
248.04391
 20
98.669471
 30
0.0
  0
VERTEX
  8
134
  6
CONTINUOUS
 62
     7
 10
248.048492
 20
98.654066
 30
0.0
  0
VERTEX
  8
134
  6
CONTINUOUS
 62
     7
 10
248.052934
 20
98.63872
 30
0.0
  0
SEQEND
  0
POLYLINE
  8
134
  6
CONTINUOUS
 62
     7
 66
     1
  0
VERTEX
  8
134
  6
CONTINUOUS
 62
     7
 10
246.894455
 20
99.955115
 30
0.0
  0
VERTEX
  8
134
  6
CONTINUOUS
 62
     7
 10
246.890623
 20
99.956861
 30
0.0
  0
VERTEX
  8
134
  6
CONTINUOUS
 62
     7
 10
246.886809
 20
99.958593
 30
0.0
  0
VERTEX
  8
134
  6
CONTINUOUS
 62
     7
 10
246.883027
 20
99.960302
 30
0.0
  0
VERTEX
  8
134
  6
CONTINUOUS
 62
     7
 10
246.879274
 20
99.961987
 30
0.0
  0
VERTEX
  8
134
  6
CONTINUOUS
 62
     7
 10
246.875549
 20
99.963651
 30
0.0
  0
VERTEX
  8
134
  6
CONTINUOUS
 62
     7
 10
246.871851
 20
99.965296
 30
0.0
  0
VERTEX
  8
134
  6
CONTINUOUS
 62
     7
 10
246.868182
 20
99.966919
 30
0.0
  0
VERTEX
  8
134
  6
CONTINUOUS
 62
     7
 10
246.864542
 20
99.968521
 30
0.0
  0
VERTEX
  8
134
  6
CONTINUOUS
 62
     7
 10
246.860931
 20
99.970103
 30
0.0
  0
VERTEX
  8
134
  6
CONTINUOUS
 62
     7
 10
246.857349
 20
99.971664
 30
0.0
  0
VERTEX
  8
134
  6
CONTINUOUS
 62
     7
 10
246.853797
 20
99.973204
 30
0.0
  0
VERTEX
  8
134
  6
CONTINUOUS
 62
     7
 10
246.850273
 20
99.974725
 30
0.0
  0
VERTEX
  8
134
  6
CONTINUOUS
 62
     7
 10
246.846779
 20
99.976226
 30
0.0
  0
VERTEX
  8
134
  6
CONTINUOUS
 62
     7
 10
246.843317
 20
99.977705
 30
0.0
  0
VERTEX
  8
134
  6
CONTINUOUS
 62
     7
 10
246.83989
 20
99.979161
 30
0.0
  0
VERTEX
  8
134
  6
CONTINUOUS
 62
     7
 10
246.836482
 20
99.980605
 30
0.0
  0
SEQEND
  0
POLYLINE
  8
134
  6
CONTINUOUS
 62
     7
 66
     1
  0
VERTEX
  8
134
  6
CONTINUOUS
 62
     7
 10
246.836482
 20
99.980605
 30
0.0
  0
VERTEX
  8
134
  6
CONTINUOUS
 62
     7
 10
246.823215
 20
99.986149
 30
0.0
  0
VERTEX
  8
134
  6
CONTINUOUS
 62
     7
 10
246.810027
 20
99.991604
 30
0.0
  0
VERTEX
  8
134
  6
CONTINUOUS
 62
     7
 10
246.796979
 20
99.9969
 30
0.0
  0
VERTEX
  8
134
  6
CONTINUOUS
 62
     7
 10
246.784067
 20
100.002043
 30
0.0
  0
VERTEX
  8
134
  6
CONTINUOUS
 62
     7
 10
246.771274
 20
100.007051
 30
0.0
  0
VERTEX
  8
134
  6
CONTINUOUS
 62
     7
 10
246.758603
 20
100.011923
 30
0.0
  0
VERTEX
  8
134
  6
CONTINUOUS
 62
     7
 10
246.746056
 20
100.016653
 30
0.0
  0
VERTEX
  8
134
  6
CONTINUOUS
 62
     7
 10
246.733635
 20
100.021243
 30
0.0
  0
VERTEX
  8
134
  6
CONTINUOUS
 62
     7
 10
246.721336
 20
100.025694
 30
0.0
  0
VERTEX
  8
134
  6
CONTINUOUS
 62
     7
 10
246.709162
 20
100.030005
 30
0.0
  0
VERTEX
  8
134
  6
CONTINUOUS
 62
     7
 10
246.697114
 20
100.034174
 30
0.0
  0
VERTEX
  8
134
  6
CONTINUOUS
 62
     7
 10
246.685186
 20
100.038207
 30
0.0
  0
VERTEX
  8
134
  6
CONTINUOUS
 62
     7
 10
246.673377
 20
100.042105
 30
0.0
  0
VERTEX
  8
134
  6
CONTINUOUS
 62
     7
 10
246.661705
 20
100.04585
 30
0.0
  0
VERTEX
  8
134
  6
CONTINUOUS
 62
     7
 10
246.650173
 20
100.049436
 30
0.0
  0
VERTEX
  8
134
  6
CONTINUOUS
 62
     7
 10
246.63872
 20
100.052934
 30
0.0
  0
SEQEND
  0
POLYLINE
  8
134
  6
CONTINUOUS
 62
     7
 66
     1
  0
VERTEX
  8
134
  6
CONTINUOUS
 62
     7
 10
251.104822
 20
102.044162
 30
0.0
  0
VERTEX
  8
134
  6
CONTINUOUS
 62
     7
 10
251.121533
 20
102.036466
 30
0.0
  0
VERTEX
  8
134
  6
CONTINUOUS
 62
     7
 10
251.138185
 20
102.028911
 30
0.0
  0
VERTEX
  8
134
  6
CONTINUOUS
 62
     7
 10
251.154731
 20
102.021609
 30
0.0
  0
VERTEX
  8
134
  6
CONTINUOUS
 62
     7
 10
251.171175
 20
102.014551
 30
0.0
  0
VERTEX
  8
134
  6
CONTINUOUS
 62
     7
 10
251.187529
 20
102.007707
 30
0.0
  0
VERTEX
  8
134
  6
CONTINUOUS
 62
     7
 10
251.203792
 20
102.00108
 30
0.0
  0
VERTEX
  8
134
  6
CONTINUOUS
 62
     7
 10
251.219961
 20
101.994677
 30
0.0
  0
VERTEX
  8
134
  6
CONTINUOUS
 62
     7
 10
251.236036
 20
101.988498
 30
0.0
  0
VERTEX
  8
134
  6
CONTINUOUS
 62
     7
 10
251.252018
 20
101.98254
 30
0.0
  0
VERTEX
  8
134
  6
CONTINUOUS
 62
     7
 10
251.267907
 20
101.976806
 30
0.0
  0
VERTEX
  8
134
  6
CONTINUOUS
 62
     7
 10
251.283701
 20
101.971296
 30
0.0
  0
VERTEX
  8
134
  6
CONTINUOUS
 62
     7
 10
251.299404
 20
101.966003
 30
0.0
  0
VERTEX
  8
134
  6
CONTINUOUS
 62
     7
 10
251.315018
 20
101.960925
 30
0.0
  0
VERTEX
  8
134
  6
CONTINUOUS
 62
     7
 10
251.330529
 20
101.95609
 30
0.0
  0
VERTEX
  8
134
  6
CONTINUOUS
 62
     7
 10
251.345934
 20
101.951508
 30
0.0
  0
VERTEX
  8
134
  6
CONTINUOUS
 62
     7
 10
251.36128
 20
101.947066
 30
0.0
  0
SEQEND
  0
POLYLINE
  8
134
  6
CONTINUOUS
 62
     7
 66
     1
  0
VERTEX
  8
134
  6
CONTINUOUS
 62
     7
 10
250.044885
 20
103.105545
 30
0.0
  0
VERTEX
  8
134
  6
CONTINUOUS
 62
     7
 10
250.043139
 20
103.109377
 30
0.0
  0
VERTEX
  8
134
  6
CONTINUOUS
 62
     7
 10
250.041407
 20
103.113191
 30
0.0
  0
VERTEX
  8
134
  6
CONTINUOUS
 62
     7
 10
250.039698
 20
103.116973
 30
0.0
  0
VERTEX
  8
134
  6
CONTINUOUS
 62
     7
 10
250.038013
 20
103.120726
 30
0.0
  0
VERTEX
  8
134
  6
CONTINUOUS
 62
     7
 10
250.036349
 20
103.124451
 30
0.0
  0
VERTEX
  8
134
  6
CONTINUOUS
 62
     7
 10
250.034704
 20
103.128149
 30
0.0
  0
VERTEX
  8
134
  6
CONTINUOUS
 62
     7
 10
250.033081
 20
103.131818
 30
0.0
  0
VERTEX
  8
134
  6
CONTINUOUS
 62
     7
 10
250.031479
 20
103.135458
 30
0.0
  0
VERTEX
  8
134
  6
CONTINUOUS
 62
     7
 10
250.029897
 20
103.139069
 30
0.0
  0
VERTEX
  8
134
  6
CONTINUOUS
 62
     7
 10
250.028336
 20
103.142651
 30
0.0
  0
VERTEX
  8
134
  6
CONTINUOUS
 62
     7
 10
250.026796
 20
103.146203
 30
0.0
  0
VERTEX
  8
134
  6
CONTINUOUS
 62
     7
 10
250.025275
 20
103.149727
 30
0.0
  0
VERTEX
  8
134
  6
CONTINUOUS
 62
     7
 10
250.023774
 20
103.153221
 30
0.0
  0
VERTEX
  8
134
  6
CONTINUOUS
 62
     7
 10
250.022295
 20
103.156683
 30
0.0
  0
VERTEX
  8
134
  6
CONTINUOUS
 62
     7
 10
250.020839
 20
103.16011
 30
0.0
  0
VERTEX
  8
134
  6
CONTINUOUS
 62
     7
 10
250.019395
 20
103.163518
 30
0.0
  0
SEQEND
  0
POLYLINE
  8
134
  6
CONTINUOUS
 62
     7
 66
     1
  0
VERTEX
  8
134
  6
CONTINUOUS
 62
     7
 10
250.019395
 20
103.163518
 30
0.0
  0
VERTEX
  8
134
  6
CONTINUOUS
 62
     7
 10
250.013851
 20
103.176785
 30
0.0
  0
VERTEX
  8
134
  6
CONTINUOUS
 62
     7
 10
250.008396
 20
103.189973
 30
0.0
  0
VERTEX
  8
134
  6
CONTINUOUS
 62
     7
 10
250.0031
 20
103.203021
 30
0.0
  0
VERTEX
  8
134
  6
CONTINUOUS
 62
     7
 10
249.997957
 20
103.215933
 30
0.0
  0
VERTEX
  8
134
  6
CONTINUOUS
 62
     7
 10
249.992949
 20
103.228726
 30
0.0
  0
VERTEX
  8
134
  6
CONTINUOUS
 62
     7
 10
249.988077
 20
103.241397
 30
0.0
  0
VERTEX
  8
134
  6
CONTINUOUS
 62
     7
 10
249.983347
 20
103.253944
 30
0.0
  0
VERTEX
  8
134
  6
CONTINUOUS
 62
     7
 10
249.978757
 20
103.266365
 30
0.0
  0
VERTEX
  8
134
  6
CONTINUOUS
 62
     7
 10
249.974306
 20
103.278664
 30
0.0
  0
VERTEX
  8
134
  6
CONTINUOUS
 62
     7
 10
249.969995
 20
103.290838
 30
0.0
  0
VERTEX
  8
134
  6
CONTINUOUS
 62
     7
 10
249.965826
 20
103.302886
 30
0.0
  0
VERTEX
  8
134
  6
CONTINUOUS
 62
     7
 10
249.961793
 20
103.314814
 30
0.0
  0
VERTEX
  8
134
  6
CONTINUOUS
 62
     7
 10
249.957895
 20
103.326623
 30
0.0
  0
VERTEX
  8
134
  6
CONTINUOUS
 62
     7
 10
249.95415
 20
103.338295
 30
0.0
  0
VERTEX
  8
134
  6
CONTINUOUS
 62
     7
 10
249.950564
 20
103.349827
 30
0.0
  0
VERTEX
  8
134
  6
CONTINUOUS
 62
     7
 10
249.947066
 20
103.36128
 30
0.0
  0
SEQEND
  0
POLYLINE
  8
134
  6
CONTINUOUS
 62
     7
 66
     1
  0
VERTEX
  8
134
  6
CONTINUOUS
 62
     7
 10
253.955838
 20
104.895178
 30
0.0
  0
VERTEX
  8
134
  6
CONTINUOUS
 62
     7
 10
253.963534
 20
104.878467
 30
0.0
  0
VERTEX
  8
134
  6
CONTINUOUS
 62
     7
 10
253.971089
 20
104.861815
 30
0.0
  0
VERTEX
  8
134
  6
CONTINUOUS
 62
     7
 10
253.978391
 20
104.845269
 30
0.0
  0
VERTEX
  8
134
  6
CONTINUOUS
 62
     7
 10
253.985449
 20
104.828825
 30
0.0
  0
VERTEX
  8
134
  6
CONTINUOUS
 62
     7
 10
253.992293
 20
104.812471
 30
0.0
  0
VERTEX
  8
134
  6
CONTINUOUS
 62
     7
 10
253.99892
 20
104.796208
 30
0.0
  0
VERTEX
  8
134
  6
CONTINUOUS
 62
     7
 10
254.005323
 20
104.780039
 30
0.0
  0
VERTEX
  8
134
  6
CONTINUOUS
 62
     7
 10
254.011502
 20
104.763964
 30
0.0
  0
VERTEX
  8
134
  6
CONTINUOUS
 62
     7
 10
254.01746
 20
104.747982
 30
0.0
  0
VERTEX
  8
134
  6
CONTINUOUS
 62
     7
 10
254.023194
 20
104.732093
 30
0.0
  0
VERTEX
  8
134
  6
CONTINUOUS
 62
     7
 10
254.028704
 20
104.716299
 30
0.0
  0
VERTEX
  8
134
  6
CONTINUOUS
 62
     7
 10
254.033997
 20
104.700596
 30
0.0
  0
VERTEX
  8
134
  6
CONTINUOUS
 62
     7
 10
254.039075
 20
104.684982
 30
0.0
  0
VERTEX
  8
134
  6
CONTINUOUS
 62
     7
 10
254.04391
 20
104.669471
 30
0.0
  0
VERTEX
  8
134
  6
CONTINUOUS
 62
     7
 10
254.048492
 20
104.654066
 30
0.0
  0
VERTEX
  8
134
  6
CONTINUOUS
 62
     7
 10
254.052934
 20
104.63872
 30
0.0
  0
SEQEND
  0
POLYLINE
  8
134
  6
CONTINUOUS
 62
     7
 66
     1
  0
VERTEX
  8
134
  6
CONTINUOUS
 62
     7
 10
252.894455
 20
105.955115
 30
0.0
  0
VERTEX
  8
134
  6
CONTINUOUS
 62
     7
 10
252.890623
 20
105.956861
 30
0.0
  0
VERTEX
  8
134
  6
CONTINUOUS
 62
     7
 10
252.886809
 20
105.958593
 30
0.0
  0
VERTEX
  8
134
  6
CONTINUOUS
 62
     7
 10
252.883027
 20
105.960302
 30
0.0
  0
VERTEX
  8
134
  6
CONTINUOUS
 62
     7
 10
252.879274
 20
105.961987
 30
0.0
  0
VERTEX
  8
134
  6
CONTINUOUS
 62
     7
 10
252.875549
 20
105.963651
 30
0.0
  0
VERTEX
  8
134
  6
CONTINUOUS
 62
     7
 10
252.871851
 20
105.965296
 30
0.0
  0
VERTEX
  8
134
  6
CONTINUOUS
 62
     7
 10
252.868182
 20
105.966919
 30
0.0
  0
VERTEX
  8
134
  6
CONTINUOUS
 62
     7
 10
252.864542
 20
105.968521
 30
0.0
  0
VERTEX
  8
134
  6
CONTINUOUS
 62
     7
 10
252.860931
 20
105.970103
 30
0.0
  0
VERTEX
  8
134
  6
CONTINUOUS
 62
     7
 10
252.857349
 20
105.971664
 30
0.0
  0
VERTEX
  8
134
  6
CONTINUOUS
 62
     7
 10
252.853797
 20
105.973204
 30
0.0
  0
VERTEX
  8
134
  6
CONTINUOUS
 62
     7
 10
252.850273
 20
105.974725
 30
0.0
  0
VERTEX
  8
134
  6
CONTINUOUS
 62
     7
 10
252.846779
 20
105.976226
 30
0.0
  0
VERTEX
  8
134
  6
CONTINUOUS
 62
     7
 10
252.843317
 20
105.977705
 30
0.0
  0
VERTEX
  8
134
  6
CONTINUOUS
 62
     7
 10
252.83989
 20
105.979161
 30
0.0
  0
VERTEX
  8
134
  6
CONTINUOUS
 62
     7
 10
252.836482
 20
105.980605
 30
0.0
  0
SEQEND
  0
POLYLINE
  8
134
  6
CONTINUOUS
 62
     7
 66
     1
  0
VERTEX
  8
134
  6
CONTINUOUS
 62
     7
 10
252.836482
 20
105.980605
 30
0.0
  0
VERTEX
  8
134
  6
CONTINUOUS
 62
     7
 10
252.823215
 20
105.986149
 30
0.0
  0
VERTEX
  8
134
  6
CONTINUOUS
 62
     7
 10
252.810027
 20
105.991604
 30
0.0
  0
VERTEX
  8
134
  6
CONTINUOUS
 62
     7
 10
252.796979
 20
105.9969
 30
0.0
  0
VERTEX
  8
134
  6
CONTINUOUS
 62
     7
 10
252.784067
 20
106.002043
 30
0.0
  0
VERTEX
  8
134
  6
CONTINUOUS
 62
     7
 10
252.771274
 20
106.007051
 30
0.0
  0
VERTEX
  8
134
  6
CONTINUOUS
 62
     7
 10
252.758603
 20
106.011923
 30
0.0
  0
VERTEX
  8
134
  6
CONTINUOUS
 62
     7
 10
252.746056
 20
106.016653
 30
0.0
  0
VERTEX
  8
134
  6
CONTINUOUS
 62
     7
 10
252.733635
 20
106.021243
 30
0.0
  0
VERTEX
  8
134
  6
CONTINUOUS
 62
     7
 10
252.721336
 20
106.025694
 30
0.0
  0
VERTEX
  8
134
  6
CONTINUOUS
 62
     7
 10
252.709162
 20
106.030005
 30
0.0
  0
VERTEX
  8
134
  6
CONTINUOUS
 62
     7
 10
252.697114
 20
106.034174
 30
0.0
  0
VERTEX
  8
134
  6
CONTINUOUS
 62
     7
 10
252.685186
 20
106.038207
 30
0.0
  0
VERTEX
  8
134
  6
CONTINUOUS
 62
     7
 10
252.673377
 20
106.042105
 30
0.0
  0
VERTEX
  8
134
  6
CONTINUOUS
 62
     7
 10
252.661705
 20
106.04585
 30
0.0
  0
VERTEX
  8
134
  6
CONTINUOUS
 62
     7
 10
252.650173
 20
106.049436
 30
0.0
  0
VERTEX
  8
134
  6
CONTINUOUS
 62
     7
 10
252.63872
 20
106.052934
 30
0.0
  0
SEQEND
  0
ARC
  8
134
  6
CONTINUOUS
 62
     7
 10
246.0
 20
98.0
 30
0.0
 40
2.15
 50
252.717748
 51
17.282252
  0
ARC
  8
134
  6
CONTINUOUS
 62
     7
 10
246.0
 20
98.0
 30
0.0
 40
2.15
 50
72.717748
 51
197.282252
  0
ARC
  8
134
  6
CONTINUOUS
 62
     7
 10
246.0
 20
98.0
 30
0.0
 40
2.15
 50
197.282252
 51
204.58379
  0
ARC
  8
134
  6
CONTINUOUS
 62
     7
 10
246.0
 20
98.0
 30
0.0
 40
2.15
 50
245.41621
 51
252.717748
  0
ARC
  8
134
  6
CONTINUOUS
 62
     7
 10
246.0
 20
98.0
 30
0.0
 40
2.15
 50
17.282252
 51
24.58379
  0
ARC
  8
134
  6
CONTINUOUS
 62
     7
 10
246.0
 20
98.0
 30
0.0
 40
2.15
 50
65.41621
 51
72.717748
  0
ARC
  8
134
  6
CONTINUOUS
 62
     7
 10
252.0
 20
104.0
 30
0.0
 40
2.15
 50
252.717748
 51
17.282252
  0
ARC
  8
134
  6
CONTINUOUS
 62
     7
 10
252.0
 20
104.0
 30
0.0
 40
2.15
 50
72.717748
 51
197.282252
  0
ARC
  8
134
  6
CONTINUOUS
 62
     7
 10
252.0
 20
104.0
 30
0.0
 40
2.15
 50
197.282252
 51
204.58379
  0
ARC
  8
134
  6
CONTINUOUS
 62
     7
 10
252.0
 20
104.0
 30
0.0
 40
2.15
 50
245.41621
 51
252.717748
  0
ARC
  8
134
  6
CONTINUOUS
 62
     7
 10
252.0
 20
104.0
 30
0.0
 40
2.15
 50
17.282252
 51
24.58379
  0
ARC
  8
134
  6
CONTINUOUS
 62
     7
 10
252.0
 20
104.0
 30
0.0
 40
2.15
 50
65.41621
 51
72.717748
  0
LINE
  8
134
  6
CONTINUOUS
 62
     7
 10
248.5
 20
117.5
 30
0.0
 11
248.5
 21
125.5
 31
0.0
  0
LINE
  8
134
  6
CONTINUOUS
 62
     7
 10
248.5
 20
117.5
 30
0.0
 11
241.5
 21
117.5
 31
0.0
  0
LINE
  8
134
  6
CONTINUOUS
 62
     7
 10
257.5
 20
125.0
 30
0.0
 11
248.5
 21
125.0
 31
0.0
  0
LINE
  8
134
  6
CONTINUOUS
 62
     7
 10
232.5
 20
80.0
 30
0.0
 11
257.5
 21
80.0
 31
0.0
  0
LINE
  8
134
  6
CONTINUOUS
 62
     7
 10
232.5
 20
125.0
 30
0.0
 11
241.5
 21
125.0
 31
0.0
  0
LINE
  8
134
  6
CONTINUOUS
 62
     7
 10
240.0
 20
129.626
 30
0.0
 11
234.0
 21
129.626
 31
0.0
  0
LINE
  8
134
  6
CONTINUOUS
 62
     7
 10
239.8
 20
129.826
 30
0.0
 11
240.0
 21
129.626
 31
0.0
  0
LINE
  8
134
  6
CONTINUOUS
 62
     7
 10
240.0
 20
125.5
 30
0.0
 11
240.0
 21
129.626
 31
0.0
  0
LINE
  8
134
  6
CONTINUOUS
 62
     7
 10
234.0
 20
129.626
 30
0.0
 11
234.2
 21
129.826
 31
0.0
  0
LINE
  8
134
  6
CONTINUOUS
 62
     7
 10
234.0
 20
125.5
 30
0.0
 11
234.0
 21
129.626
 31
0.0
  0
LINE
  8
134
  6
CONTINUOUS
 62
     7
 10
241.5
 20
125.5
 30
0.0
 11
241.5
 21
117.5
 31
0.0
  0
LINE
  8
134
  6
CONTINUOUS
 62
     7
 10
241.5
 20
125.5
 30
0.0
 11
232.5
 21
125.5
 31
0.0
  0
LINE
  8
134
  6
CONTINUOUS
 62
     7
 10
256.421242
 20
109.481902
 30
0.0
 11
256.845506
 21
109.481902
 31
0.0
  0
LINE
  8
134
  6
CONTINUOUS
 62
     7
 10
242.70337
 20
95.76403
 30
0.0
 11
256.421242
 21
109.481902
 31
0.0
  0
LINE
  8
134
  6
CONTINUOUS
 62
     7
 10
242.70337
 20
95.339766
 30
0.0
 11
242.70337
 21
95.76403
 31
0.0
  0
LINE
  8
134
  6
CONTINUOUS
 62
     7
 10
257.481902
 20
108.845506
 30
0.0
 11
256.845506
 21
109.481902
 31
0.0
  0
LINE
  8
134
  6
CONTINUOUS
 62
     7
 10
257.481902
 20
108.421242
 30
0.0
 11
256.421242
 21
109.481902
 31
0.0
  0
LINE
  8
134
  6
CONTINUOUS
 62
     7
 10
243.76403
 20
94.70337
 30
0.0
 11
242.70337
 21
95.76403
 31
0.0
  0
LINE
  8
134
  6
CONTINUOUS
 62
     7
 10
257.481902
 20
108.421242
 30
0.0
 11
257.481902
 21
108.845506
 31
0.0
  0
LINE
  8
134
  6
CONTINUOUS
 62
     7
 10
243.76403
 20
94.70337
 30
0.0
 11
257.481902
 21
108.421242
 31
0.0
  0
LINE
  8
134
  6
CONTINUOUS
 62
     7
 10
243.339766
 20
94.70337
 30
0.0
 11
243.76403
 21
94.70337
 31
0.0
  0
LINE
  8
134
  6
CONTINUOUS
 62
     7
 10
257.5
 20
75.0
 30
0.0
 11
257.5
 21
125.5
 31
0.0
  0
LINE
  8
134
  6
CONTINUOUS
 62
     7
 10
232.5
 20
75.0
 30
0.0
 11
232.5
 21
125.5
 31
0.0
  0
LINE
  8
134
  6
CONTINUOUS
 62
     7
 10
257.5
 20
75.0
 30
0.0
 11
232.5
 21
75.0
 31
0.0
  0
CIRCLE
  8
0
  6
CONTINUOUS
 62
     7
 10
125.0
 20
115.0
 30
0.0
 40
0.8
  0
LINE
  8
0
  6
LTYPE1
 62
     2
 10
119.2
 20
115.0
 30
0.0
 11
130.8
 21
115.0
 31
0.0
  0
LINE
  8
0
  6
LTYPE1
 62
     2
 10
125.0
 20
109.2
 30
0.0
 11
125.0
 21
120.8
 31
0.0
  0
CIRCLE
  8
0
  6
CONTINUOUS
 62
     7
 10
115.0
 20
105.0
 30
0.0
 40
0.8
  0
CIRCLE
  8
0
  6
CONTINUOUS
 62
     7
 10
135.0
 20
105.0
 30
0.0
 40
0.8
  0
CIRCLE
  8
0
  6
CONTINUOUS
 62
     7
 10
125.0
 20
95.0
 30
0.0
 40
0.8
  0
LINE
  8
0
  6
LTYPE1
 62
     2
 10
123.0
 20
95.0
 30
0.0
 11
127.0
 21
95.0
 31
0.0
  0
LINE
  8
0
  6
LTYPE1
 62
     2
 10
115.0
 20
107.0
 30
0.0
 11
115.0
 21
103.0
 31
0.0
  0
LINE
  8
0
  6
LTYPE1
 62
     2
 10
135.0
 20
107.0
 30
0.0
 11
135.0
 21
103.0
 31
0.0
  0
LINE
  8
0
  6
LTYPE1
 62
     2
 10
137.0
 20
105.0
 30
0.0
 11
113.0
 21
105.0
 31
0.0
  0
LINE
  8
0
  6
LTYPE1
 62
     2
 10
72.0
 20
115.0
 30
0.0
 11
65.0
 21
115.0
 31
0.0
  0
LINE
  8
0
  6
LTYPE1
 62
     2
 10
72.0
 20
105.0
 30
0.0
 11
65.0
 21
105.0
 31
0.0
  0
LINE
  8
0
  6
LTYPE1
 62
     2
 10
72.0
 20
95.0
 30
0.0
 11
65.0
 21
95.0
 31
0.0
  0
LINE
  8
0
  6
LTYPE1
 62
     2
 10
178.0
 20
115.0
 30
0.0
 11
185.0
 21
115.0
 31
0.0
  0
LINE
  8
0
  6
LTYPE1
 62
     2
 10
178.0
 20
105.0
 30
0.0
 11
185.0
 21
105.0
 31
0.0
  0
LINE
  8
0
  6
LTYPE1
 62
     2
 10
178.0
 20
95.0
 30
0.0
 11
185.0
 21
95.0
 31
0.0
  0
CIRCLE
  8
132
  6
CONTINUOUS
 62
     7
 10
117.0
 20
181.826
 30
0.0
 40
4.0
  0
CIRCLE
  8
132
  6
CONTINUOUS
 62
     7
 10
117.0
 20
181.826
 30
0.0
 40
3.5
  0
CIRCLE
  8
132
  6
CONTINUOUS
 62
     7
 10
117.0
 20
181.826
 30
0.0
 40
2.85
  0
LINE
  8
132
  6
CONTINUOUS
 62
     7
 10
137.0
 20
171.826
 30
0.0
 11
137.0
 21
176.826
 31
0.0
  0
LINE
  8
132
  6
CONTINUOUS
 62
     7
 10
113.0
 20
171.826
 30
0.0
 11
113.0
 21
176.826
 31
0.0
  0
LINE
  8
132
  6
CONTINUOUS
 62
     7
 10
112.5
 20
171.826
 30
0.0
 11
137.5
 21
171.826
 31
0.0
  0
CIRCLE
  8
132
  6
CONTINUOUS
 62
     7
 10
117.0
 20
181.826
 30
0.0
 40
4.5
  0
CIRCLE
  8
132
  6
CONTINUOUS
 62
     7
 10
133.0
 20
181.826
 30
0.0
 40
2.75
  0
CIRCLE
  8
132
  6
CONTINUOUS
 62
     7
 10
133.0
 20
181.826
 30
0.0
 40
2.45
  0
LINE
  8
132
  6
CONTINUOUS
 62
     7
 10
134.443376
 20
181.826
 30
0.0
 11
133.721688
 21
180.576
 31
0.0
  0
LINE
  8
132
  6
CONTINUOUS
 62
     7
 10
132.278312
 20
180.576
 30
0.0
 11
133.721688
 21
180.576
 31
0.0
  0
LINE
  8
132
  6
CONTINUOUS
 62
     7
 10
131.556624
 20
181.826
 30
0.0
 11
132.278312
 21
180.576
 31
0.0
  0
LINE
  8
132
  6
CONTINUOUS
 62
     7
 10
132.278312
 20
183.076
 30
0.0
 11
131.556624
 21
181.826
 31
0.0
  0
LINE
  8
132
  6
CONTINUOUS
 62
     7
 10
133.721688
 20
183.076
 30
0.0
 11
132.278312
 21
183.076
 31
0.0
  0
LINE
  8
132
  6
CONTINUOUS
 62
     7
 10
134.443376
 20
181.826
 30
0.0
 11
133.721688
 21
183.076
 31
0.0
  0
LINE
  8
132
  6
CONTINUOUS
 62
     7
 10
121.8
 20
178.385012
 30
0.0
 11
121.8
 21
178.307997
 31
0.0
  0
POLYLINE
  8
132
  6
CONTINUOUS
 62
     7
 66
     1
  0
VERTEX
  8
132
  6
CONTINUOUS
 62
     7
 10
121.5
 20
178.395792
 30
0.0
  0
VERTEX
  8
132
  6
CONTINUOUS
 62
     7
 10
121.53093
 20
178.398398
 30
0.0
  0
VERTEX
  8
132
  6
CONTINUOUS
 62
     7
 10
121.561546
 20
178.400752
 30
0.0
  0
VERTEX
  8
132
  6
CONTINUOUS
 62
     7
 10
121.591528
 20
178.402647
 30
0.0
  0
VERTEX
  8
132
  6
CONTINUOUS
 62
     7
 10
121.620518
 20
178.404057
 30
0.0
  0
VERTEX
  8
132
  6
CONTINUOUS
 62
     7
 10
121.648157
 20
178.404995
 30
0.0
  0
VERTEX
  8
132
  6
CONTINUOUS
 62
     7
 10
121.674115
 20
178.405438
 30
0.0
  0
VERTEX
  8
132
  6
CONTINUOUS
 62
     7
 10
121.698084
 20
178.405363
 30
0.0
  0
VERTEX
  8
132
  6
CONTINUOUS
 62
     7
 10
121.719816
 20
178.404776
 30
0.0
  0
VERTEX
  8
132
  6
CONTINUOUS
 62
     7
 10
121.739093
 20
178.403689
 30
0.0
  0
VERTEX
  8
132
  6
CONTINUOUS
 62
     7
 10
121.755756
 20
178.402127
 30
0.0
  0
VERTEX
  8
132
  6
CONTINUOUS
 62
     7
 10
121.769696
 20
178.40012
 30
0.0
  0
VERTEX
  8
132
  6
CONTINUOUS
 62
     7
 10
121.780972
 20
178.397714
 30
0.0
  0
VERTEX
  8
132
  6
CONTINUOUS
 62
     7
 10
121.789625
 20
178.394956
 30
0.0
  0
VERTEX
  8
132
  6
CONTINUOUS
 62
     7
 10
121.795453
 20
178.391876
 30
0.0
  0
VERTEX
  8
132
  6
CONTINUOUS
 62
     7
 10
121.798498
 20
178.388519
 30
0.0
  0
VERTEX
  8
132
  6
CONTINUOUS
 62
     7
 10
121.8
 20
178.385012
 30
0.0
  0
SEQEND
  0
LINE
  8
132
  6
CONTINUOUS
 62
     7
 10
123.05
 20
178.307997
 30
0.0
 11
123.05
 21
178.312178
 31
0.0
  0
ARC
  8
132
  6
CONTINUOUS
 62
     7
 10
122.0
 20
173.526
 30
0.0
 40
4.895917
 50
77.615891
 51
82.960643
  0
POLYLINE
  8
132
  6
CONTINUOUS
 62
     7
 66
     1
  0
VERTEX
  8
132
  6
CONTINUOUS
 62
     7
 10
122.2
 20
178.385012
 30
0.0
  0
VERTEX
  8
132
  6
CONTINUOUS
 62
     7
 10
122.202195
 20
178.389209
 30
0.0
  0
VERTEX
  8
132
  6
CONTINUOUS
 62
     7
 10
122.206678
 20
178.393175
 30
0.0
  0
VERTEX
  8
132
  6
CONTINUOUS
 62
     7
 10
122.215291
 20
178.396706
 30
0.0
  0
VERTEX
  8
132
  6
CONTINUOUS
 62
     7
 10
122.228086
 20
178.399724
 30
0.0
  0
VERTEX
  8
132
  6
CONTINUOUS
 62
     7
 10
122.244735
 20
178.402175
 30
0.0
  0
VERTEX
  8
132
  6
CONTINUOUS
 62
     7
 10
122.265204
 20
178.403988
 30
0.0
  0
VERTEX
  8
132
  6
CONTINUOUS
 62
     7
 10
122.289456
 20
178.405096
 30
0.0
  0
VERTEX
  8
132
  6
CONTINUOUS
 62
     7
 10
122.317162
 20
178.40547
 30
0.0
  0
VERTEX
  8
132
  6
CONTINUOUS
 62
     7
 10
122.347898
 20
178.405096
 30
0.0
  0
VERTEX
  8
132
  6
CONTINUOUS
 62
     7
 10
122.381123
 20
178.403988
 30
0.0
  0
VERTEX
  8
132
  6
CONTINUOUS
 62
     7
 10
122.416272
 20
178.402175
 30
0.0
  0
VERTEX
  8
132
  6
CONTINUOUS
 62
     7
 10
122.45277
 20
178.399724
 30
0.0
  0
VERTEX
  8
132
  6
CONTINUOUS
 62
     7
 10
122.490006
 20
178.396706
 30
0.0
  0
VERTEX
  8
132
  6
CONTINUOUS
 62
     7
 10
122.52722
 20
178.393175
 30
0.0
  0
VERTEX
  8
132
  6
CONTINUOUS
 62
     7
 10
122.563815
 20
178.389209
 30
0.0
  0
VERTEX
  8
132
  6
CONTINUOUS
 62
     7
 10
122.6
 20
178.385012
 30
0.0
  0
SEQEND
  0
LINE
  8
132
  6
CONTINUOUS
 62
     7
 10
122.2
 20
178.307997
 30
0.0
 11
122.2
 21
178.385012
 31
0.0
  0
ARC
  8
132
  6
CONTINUOUS
 62
     7
 10
122.0
 20
173.526
 30
0.0
 40
4.786178
 50
87.605084
 51
92.394916
  0
LINE
  8
132
  6
CONTINUOUS
 62
     7
 10
122.0
 20
178.24701
 30
0.0
 11
122.0
 21
177.726
 31
0.0
  0
LINE
  8
132
  6
CONTINUOUS
 62
     7
 10
123.7
 20
177.726
 30
0.0
 11
121.5
 21
177.726
 31
0.0
  0
LINE
  8
132
  6
CONTINUOUS
 62
     7
 10
123.312275
 20
178.24701
 30
0.0
 11
121.5
 21
178.24701
 31
0.0
  0
LINE
  8
132
  6
CONTINUOUS
 62
     7
 10
123.7
 20
177.726
 30
0.0
 11
123.75
 21
177.126
 31
0.0
  0
ARC
  8
132
  6
CONTINUOUS
 62
     7
 10
122.96378
 20
177.582893
 30
0.0
 40
0.75
 50
11.0
 51
62.311729
  0
ARC
  8
132
  6
CONTINUOUS
 62
     7
 10
122.0
 20
173.526
 30
0.0
 40
4.9
 50
74.465934
 51
77.626375
  0
CIRCLE
  8
132
  6
CONTINUOUS
 62
     7
 10
117.0
 20
181.826
 30
0.0
 40
2.75
  0
CIRCLE
  8
132
  6
CONTINUOUS
 62
     7
 10
117.0
 20
181.826
 30
0.0
 40
2.45
  0
LINE
  8
132
  6
CONTINUOUS
 62
     7
 10
118.443376
 20
181.826
 30
0.0
 11
117.721688
 21
180.576
 31
0.0
  0
LINE
  8
132
  6
CONTINUOUS
 62
     7
 10
116.278312
 20
180.576
 30
0.0
 11
117.721688
 21
180.576
 31
0.0
  0
LINE
  8
132
  6
CONTINUOUS
 62
     7
 10
115.556624
 20
181.826
 30
0.0
 11
116.278312
 21
180.576
 31
0.0
  0
LINE
  8
132
  6
CONTINUOUS
 62
     7
 10
116.278312
 20
183.076
 30
0.0
 11
115.556624
 21
181.826
 31
0.0
  0
LINE
  8
132
  6
CONTINUOUS
 62
     7
 10
117.721688
 20
183.076
 30
0.0
 11
116.278312
 21
183.076
 31
0.0
  0
LINE
  8
132
  6
CONTINUOUS
 62
     7
 10
118.443376
 20
181.826
 30
0.0
 11
117.721688
 21
183.076
 31
0.0
  0
LINE
  8
132
  6
CONTINUOUS
 62
     7
 10
128.2
 20
178.385012
 30
0.0
 11
128.2
 21
178.307997
 31
0.0
  0
POLYLINE
  8
132
  6
CONTINUOUS
 62
     7
 66
     1
  0
VERTEX
  8
132
  6
CONTINUOUS
 62
     7
 10
128.5
 20
178.395792
 30
0.0
  0
VERTEX
  8
132
  6
CONTINUOUS
 62
     7
 10
128.46907
 20
178.398398
 30
0.0
  0
VERTEX
  8
132
  6
CONTINUOUS
 62
     7
 10
128.438454
 20
178.400752
 30
0.0
  0
VERTEX
  8
132
  6
CONTINUOUS
 62
     7
 10
128.408472
 20
178.402647
 30
0.0
  0
VERTEX
  8
132
  6
CONTINUOUS
 62
     7
 10
128.379482
 20
178.404057
 30
0.0
  0
VERTEX
  8
132
  6
CONTINUOUS
 62
     7
 10
128.351843
 20
178.404995
 30
0.0
  0
VERTEX
  8
132
  6
CONTINUOUS
 62
     7
 10
128.325885
 20
178.405438
 30
0.0
  0
VERTEX
  8
132
  6
CONTINUOUS
 62
     7
 10
128.301916
 20
178.405363
 30
0.0
  0
VERTEX
  8
132
  6
CONTINUOUS
 62
     7
 10
128.280184
 20
178.404776
 30
0.0
  0
VERTEX
  8
132
  6
CONTINUOUS
 62
     7
 10
128.260907
 20
178.403689
 30
0.0
  0
VERTEX
  8
132
  6
CONTINUOUS
 62
     7
 10
128.244244
 20
178.402127
 30
0.0
  0
VERTEX
  8
132
  6
CONTINUOUS
 62
     7
 10
128.230304
 20
178.40012
 30
0.0
  0
VERTEX
  8
132
  6
CONTINUOUS
 62
     7
 10
128.219028
 20
178.397714
 30
0.0
  0
VERTEX
  8
132
  6
CONTINUOUS
 62
     7
 10
128.210375
 20
178.394956
 30
0.0
  0
VERTEX
  8
132
  6
CONTINUOUS
 62
     7
 10
128.204547
 20
178.391876
 30
0.0
  0
VERTEX
  8
132
  6
CONTINUOUS
 62
     7
 10
128.201502
 20
178.388519
 30
0.0
  0
VERTEX
  8
132
  6
CONTINUOUS
 62
     7
 10
128.2
 20
178.385012
 30
0.0
  0
SEQEND
  0
LINE
  8
132
  6
CONTINUOUS
 62
     7
 10
126.95
 20
178.307997
 30
0.0
 11
126.95
 21
178.312178
 31
0.0
  0
ARC
  8
132
  6
CONTINUOUS
 62
     7
 10
128.0
 20
173.526
 30
0.0
 40
4.895917
 50
97.039357
 51
102.384109
  0
POLYLINE
  8
132
  6
CONTINUOUS
 62
     7
 66
     1
  0
VERTEX
  8
132
  6
CONTINUOUS
 62
     7
 10
127.8
 20
178.385012
 30
0.0
  0
VERTEX
  8
132
  6
CONTINUOUS
 62
     7
 10
127.797805
 20
178.389209
 30
0.0
  0
VERTEX
  8
132
  6
CONTINUOUS
 62
     7
 10
127.793322
 20
178.393175
 30
0.0
  0
VERTEX
  8
132
  6
CONTINUOUS
 62
     7
 10
127.784709
 20
178.396706
 30
0.0
  0
VERTEX
  8
132
  6
CONTINUOUS
 62
     7
 10
127.771914
 20
178.399724
 30
0.0
  0
VERTEX
  8
132
  6
CONTINUOUS
 62
     7
 10
127.755265
 20
178.402175
 30
0.0
  0
VERTEX
  8
132
  6
CONTINUOUS
 62
     7
 10
127.734796
 20
178.403988
 30
0.0
  0
VERTEX
  8
132
  6
CONTINUOUS
 62
     7
 10
127.710544
 20
178.405096
 30
0.0
  0
VERTEX
  8
132
  6
CONTINUOUS
 62
     7
 10
127.682838
 20
178.40547
 30
0.0
  0
VERTEX
  8
132
  6
CONTINUOUS
 62
     7
 10
127.652102
 20
178.405096
 30
0.0
  0
VERTEX
  8
132
  6
CONTINUOUS
 62
     7
 10
127.618877
 20
178.403988
 30
0.0
  0
VERTEX
  8
132
  6
CONTINUOUS
 62
     7
 10
127.583728
 20
178.402175
 30
0.0
  0
VERTEX
  8
132
  6
CONTINUOUS
 62
     7
 10
127.54723
 20
178.399724
 30
0.0
  0
VERTEX
  8
132
  6
CONTINUOUS
 62
     7
 10
127.509994
 20
178.396706
 30
0.0
  0
VERTEX
  8
132
  6
CONTINUOUS
 62
     7
 10
127.47278
 20
178.393175
 30
0.0
  0
VERTEX
  8
132
  6
CONTINUOUS
 62
     7
 10
127.436185
 20
178.389209
 30
0.0
  0
VERTEX
  8
132
  6
CONTINUOUS
 62
     7
 10
127.4
 20
178.385012
 30
0.0
  0
SEQEND
  0
LINE
  8
132
  6
CONTINUOUS
 62
     7
 10
127.8
 20
178.307997
 30
0.0
 11
127.8
 21
178.385012
 31
0.0
  0
ARC
  8
132
  6
CONTINUOUS
 62
     7
 10
128.0
 20
173.526
 30
0.0
 40
4.786178
 50
87.605084
 51
92.394916
  0
LINE
  8
132
  6
CONTINUOUS
 62
     7
 10
128.0
 20
178.24701
 30
0.0
 11
128.0
 21
177.726
 31
0.0
  0
LINE
  8
132
  6
CONTINUOUS
 62
     7
 10
126.3
 20
177.726
 30
0.0
 11
128.5
 21
177.726
 31
0.0
  0
LINE
  8
132
  6
CONTINUOUS
 62
     7
 10
126.687725
 20
178.24701
 30
0.0
 11
128.5
 21
178.24701
 31
0.0
  0
LINE
  8
132
  6
CONTINUOUS
 62
     7
 10
126.3
 20
177.726
 30
0.0
 11
126.25
 21
177.126
 31
0.0
  0
ARC
  8
132
  6
CONTINUOUS
 62
     7
 10
127.03622
 20
177.582893
 30
0.0
 40
0.75
 50
117.688271
 51
169.0
  0
ARC
  8
132
  6
CONTINUOUS
 62
     7
 10
128.0
 20
173.526
 30
0.0
 40
4.9
 50
102.373625
 51
105.534066
  0
CIRCLE
  8
132
  6
CONTINUOUS
 62
     7
 10
133.0
 20
181.826
 30
0.0
 40
4.0
  0
CIRCLE
  8
132
  6
CONTINUOUS
 62
     7
 10
133.0
 20
181.826
 30
0.0
 40
3.5
  0
CIRCLE
  8
132
  6
CONTINUOUS
 62
     7
 10
133.0
 20
181.826
 30
0.0
 40
2.85
  0
LINE
  8
132
  6
CONTINUOUS
 62
     7
 10
121.5
 20
179.026
 30
0.0
 11
128.5
 21
179.026
 31
0.0
  0
LINE
  8
132
  6
CONTINUOUS
 62
     7
 10
121.5
 20
186.826
 30
0.0
 11
121.5
 21
176.826
 31
0.0
  0
LINE
  8
132
  6
CONTINUOUS
 62
     7
 10
128.5
 20
186.826
 30
0.0
 11
128.5
 21
176.826
 31
0.0
  0
LINE
  8
132
  6
CONTINUOUS
 62
     7
 10
137.5
 20
186.826
 30
0.0
 11
112.5
 21
186.826
 31
0.0
  0
CIRCLE
  8
132
  6
CONTINUOUS
 62
     7
 10
133.0
 20
181.826
 30
0.0
 40
4.5
  0
POLYLINE
  8
132
  6
CONTINUOUS
 62
     7
 66
     1
  0
VERTEX
  8
132
  6
CONTINUOUS
 62
     7
 10
125.819468
 20
178.274623
 30
0.0
  0
VERTEX
  8
132
  6
CONTINUOUS
 62
     7
 10
125.723973
 20
178.282831
 30
0.0
  0
VERTEX
  8
132
  6
CONTINUOUS
 62
     7
 10
125.625534
 20
178.290736
 30
0.0
  0
VERTEX
  8
132
  6
CONTINUOUS
 62
     7
 10
125.521932
 20
178.298093
 30
0.0
  0
VERTEX
  8
132
  6
CONTINUOUS
 62
     7
 10
125.413844
 20
178.304892
 30
0.0
  0
VERTEX
  8
132
  6
CONTINUOUS
 62
     7
 10
125.302488
 20
178.311166
 30
0.0
  0
VERTEX
  8
132
  6
CONTINUOUS
 62
     7
 10
125.188343
 20
178.316894
 30
0.0
  0
VERTEX
  8
132
  6
CONTINUOUS
 62
     7
 10
125.071758
 20
178.322047
 30
0.0
  0
VERTEX
  8
132
  6
CONTINUOUS
 62
     7
 10
124.953282
 20
178.326621
 30
0.0
  0
VERTEX
  8
132
  6
CONTINUOUS
 62
     7
 10
124.833507
 20
178.330617
 30
0.0
  0
VERTEX
  8
132
  6
CONTINUOUS
 62
     7
 10
124.712973
 20
178.334034
 30
0.0
  0
VERTEX
  8
132
  6
CONTINUOUS
 62
     7
 10
124.592189
 20
178.336877
 30
0.0
  0
VERTEX
  8
132
  6
CONTINUOUS
 62
     7
 10
124.471557
 20
178.339172
 30
0.0
  0
VERTEX
  8
132
  6
CONTINUOUS
 62
     7
 10
124.351526
 20
178.340939
 30
0.0
  0
VERTEX
  8
132
  6
CONTINUOUS
 62
     7
 10
124.232808
 20
178.342136
 30
0.0
  0
VERTEX
  8
132
  6
CONTINUOUS
 62
     7
 10
124.115881
 20
178.342767
 30
0.0
  0
VERTEX
  8
132
  6
CONTINUOUS
 62
     7
 10
124.0
 20
178.343083
 30
0.0
  0
SEQEND
  0
POLYLINE
  8
132
  6
CONTINUOUS
 62
     7
 66
     1
  0
VERTEX
  8
132
  6
CONTINUOUS
 62
     7
 10
122.974685
 20
178.323915
 30
0.0
  0
VERTEX
  8
132
  6
CONTINUOUS
 62
     7
 10
123.038631
 20
178.326295
 30
0.0
  0
VERTEX
  8
132
  6
CONTINUOUS
 62
     7
 10
123.102794
 20
178.328568
 30
0.0
  0
VERTEX
  8
132
  6
CONTINUOUS
 62
     7
 10
123.167326
 20
178.330651
 30
0.0
  0
VERTEX
  8
132
  6
CONTINUOUS
 62
     7
 10
123.23213
 20
178.332551
 30
0.0
  0
VERTEX
  8
132
  6
CONTINUOUS
 62
     7
 10
123.297061
 20
178.33429
 30
0.0
  0
VERTEX
  8
132
  6
CONTINUOUS
 62
     7
 10
123.362045
 20
178.335869
 30
0.0
  0
VERTEX
  8
132
  6
CONTINUOUS
 62
     7
 10
123.427023
 20
178.337284
 30
0.0
  0
VERTEX
  8
132
  6
CONTINUOUS
 62
     7
 10
123.491922
 20
178.338536
 30
0.0
  0
VERTEX
  8
132
  6
CONTINUOUS
 62
     7
 10
123.556664
 20
178.33963
 30
0.0
  0
VERTEX
  8
132
  6
CONTINUOUS
 62
     7
 10
123.621175
 20
178.340567
 30
0.0
  0
VERTEX
  8
132
  6
CONTINUOUS
 62
     7
 10
123.685388
 20
178.341349
 30
0.0
  0
VERTEX
  8
132
  6
CONTINUOUS
 62
     7
 10
123.749262
 20
178.341984
 30
0.0
  0
VERTEX
  8
132
  6
CONTINUOUS
 62
     7
 10
123.812742
 20
178.342477
 30
0.0
  0
VERTEX
  8
132
  6
CONTINUOUS
 62
     7
 10
123.875686
 20
178.342814
 30
0.0
  0
VERTEX
  8
132
  6
CONTINUOUS
 62
     7
 10
123.938018
 20
178.342992
 30
0.0
  0
VERTEX
  8
132
  6
CONTINUOUS
 62
     7
 10
124.0
 20
178.343083
 30
0.0
  0
SEQEND
  0
POLYLINE
  8
132
  6
CONTINUOUS
 62
     7
 66
     1
  0
VERTEX
  8
132
  6
CONTINUOUS
 62
     7
 10
126.5
 20
178.424052
 30
0.0
  0
VERTEX
  8
132
  6
CONTINUOUS
 62
     7
 10
126.486284
 20
178.443765
 30
0.0
  0
VERTEX
  8
132
  6
CONTINUOUS
 62
     7
 10
126.458263
 20
178.4637
 30
0.0
  0
VERTEX
  8
132
  6
CONTINUOUS
 62
     7
 10
126.404431
 20
178.483972
 30
0.0
  0
VERTEX
  8
132
  6
CONTINUOUS
 62
     7
 10
126.324471
 20
178.504256
 30
0.0
  0
VERTEX
  8
132
  6
CONTINUOUS
 62
     7
 10
126.220414
 20
178.524138
 30
0.0
  0
VERTEX
  8
132
  6
CONTINUOUS
 62
     7
 10
126.092489
 20
178.543283
 30
0.0
  0
VERTEX
  8
132
  6
CONTINUOUS
 62
     7
 10
125.940926
 20
178.561382
 30
0.0
  0
VERTEX
  8
132
  6
CONTINUOUS
 62
     7
 10
125.767767
 20
178.578123
 30
0.0
  0
VERTEX
  8
132
  6
CONTINUOUS
 62
     7
 10
125.575679
 20
178.593215
 30
0.0
  0
VERTEX
  8
132
  6
CONTINUOUS
 62
     7
 10
125.368024
 20
178.606425
 30
0.0
  0
VERTEX
  8
132
  6
CONTINUOUS
 62
     7
 10
125.14835
 20
178.617574
 30
0.0
  0
VERTEX
  8
132
  6
CONTINUOUS
 62
     7
 10
124.920237
 20
178.626643
 30
0.0
  0
VERTEX
  8
132
  6
CONTINUOUS
 62
     7
 10
124.687505
 20
178.633612
 30
0.0
  0
VERTEX
  8
132
  6
CONTINUOUS
 62
     7
 10
124.454908
 20
178.638304
 30
0.0
  0
VERTEX
  8
132
  6
CONTINUOUS
 62
     7
 10
124.226174
 20
178.640746
 30
0.0
  0
VERTEX
  8
132
  6
CONTINUOUS
 62
     7
 10
124.0
 20
178.641942
 30
0.0
  0
SEQEND
  0
POLYLINE
  8
132
  6
CONTINUOUS
 62
     7
 66
     1
  0
VERTEX
  8
132
  6
CONTINUOUS
 62
     7
 10
121.5
 20
178.424052
 30
0.0
  0
VERTEX
  8
132
  6
CONTINUOUS
 62
     7
 10
121.513716
 20
178.443765
 30
0.0
  0
VERTEX
  8
132
  6
CONTINUOUS
 62
     7
 10
121.541737
 20
178.4637
 30
0.0
  0
VERTEX
  8
132
  6
CONTINUOUS
 62
     7
 10
121.595569
 20
178.483972
 30
0.0
  0
VERTEX
  8
132
  6
CONTINUOUS
 62
     7
 10
121.675529
 20
178.504256
 30
0.0
  0
VERTEX
  8
132
  6
CONTINUOUS
 62
     7
 10
121.779586
 20
178.524138
 30
0.0
  0
VERTEX
  8
132
  6
CONTINUOUS
 62
     7
 10
121.907511
 20
178.543283
 30
0.0
  0
VERTEX
  8
132
  6
CONTINUOUS
 62
     7
 10
122.059074
 20
178.561382
 30
0.0
  0
VERTEX
  8
132
  6
CONTINUOUS
 62
     7
 10
122.232233
 20
178.578123
 30
0.0
  0
VERTEX
  8
132
  6
CONTINUOUS
 62
     7
 10
122.424321
 20
178.593215
 30
0.0
  0
VERTEX
  8
132
  6
CONTINUOUS
 62
     7
 10
122.631976
 20
178.606425
 30
0.0
  0
VERTEX
  8
132
  6
CONTINUOUS
 62
     7
 10
122.85165
 20
178.617574
 30
0.0
  0
VERTEX
  8
132
  6
CONTINUOUS
 62
     7
 10
123.079763
 20
178.626643
 30
0.0
  0
VERTEX
  8
132
  6
CONTINUOUS
 62
     7
 10
123.312495
 20
178.633612
 30
0.0
  0
VERTEX
  8
132
  6
CONTINUOUS
 62
     7
 10
123.545092
 20
178.638304
 30
0.0
  0
VERTEX
  8
132
  6
CONTINUOUS
 62
     7
 10
123.773826
 20
178.640746
 30
0.0
  0
VERTEX
  8
132
  6
CONTINUOUS
 62
     7
 10
124.0
 20
178.641942
 30
0.0
  0
SEQEND
  0
POLYLINE
  8
132
  6
CONTINUOUS
 62
     7
 66
     1
  0
VERTEX
  8
132
  6
CONTINUOUS
 62
     7
 10
124.0
 20
178.206163
 30
0.0
  0
VERTEX
  8
132
  6
CONTINUOUS
 62
     7
 10
123.961849
 20
178.206197
 30
0.0
  0
VERTEX
  8
132
  6
CONTINUOUS
 62
     7
 10
123.923558
 20
178.206265
 30
0.0
  0
VERTEX
  8
132
  6
CONTINUOUS
 62
     7
 10
123.885019
 20
178.206391
 30
0.0
  0
VERTEX
  8
132
  6
CONTINUOUS
 62
     7
 10
123.846251
 20
178.206575
 30
0.0
  0
VERTEX
  8
132
  6
CONTINUOUS
 62
     7
 10
123.807301
 20
178.206812
 30
0.0
  0
VERTEX
  8
132
  6
CONTINUOUS
 62
     7
 10
123.768178
 20
178.207102
 30
0.0
  0
VERTEX
  8
132
  6
CONTINUOUS
 62
     7
 10
123.728887
 20
178.207448
 30
0.0
  0
VERTEX
  8
132
  6
CONTINUOUS
 62
     7
 10
123.689444
 20
178.207851
 30
0.0
  0
VERTEX
  8
132
  6
CONTINUOUS
 62
     7
 10
123.649864
 20
178.20831
 30
0.0
  0
VERTEX
  8
132
  6
CONTINUOUS
 62
     7
 10
123.610162
 20
178.208828
 30
0.0
  0
VERTEX
  8
132
  6
CONTINUOUS
 62
     7
 10
123.570353
 20
178.209405
 30
0.0
  0
VERTEX
  8
132
  6
CONTINUOUS
 62
     7
 10
123.530452
 20
178.21004
 30
0.0
  0
VERTEX
  8
132
  6
CONTINUOUS
 62
     7
 10
123.490477
 20
178.210733
 30
0.0
  0
VERTEX
  8
132
  6
CONTINUOUS
 62
     7
 10
123.450441
 20
178.211492
 30
0.0
  0
VERTEX
  8
132
  6
CONTINUOUS
 62
     7
 10
123.410363
 20
178.212321
 30
0.0
  0
VERTEX
  8
132
  6
CONTINUOUS
 62
     7
 10
123.370262
 20
178.213189
 30
0.0
  0
SEQEND
  0
POLYLINE
  8
132
  6
CONTINUOUS
 62
     7
 66
     1
  0
VERTEX
  8
132
  6
CONTINUOUS
 62
     7
 10
121.86744
 20
178.310342
 30
0.0
  0
VERTEX
  8
132
  6
CONTINUOUS
 62
     7
 10
121.86303
 20
178.310973
 30
0.0
  0
VERTEX
  8
132
  6
CONTINUOUS
 62
     7
 10
121.858637
 20
178.311606
 30
0.0
  0
VERTEX
  8
132
  6
CONTINUOUS
 62
     7
 10
121.854275
 20
178.312239
 30
0.0
  0
VERTEX
  8
132
  6
CONTINUOUS
 62
     7
 10
121.849941
 20
178.312873
 30
0.0
  0
VERTEX
  8
132
  6
CONTINUOUS
 62
     7
 10
121.845633
 20
178.313509
 30
0.0
  0
VERTEX
  8
132
  6
CONTINUOUS
 62
     7
 10
121.84135
 20
178.314145
 30
0.0
  0
VERTEX
  8
132
  6
CONTINUOUS
 62
     7
 10
121.837095
 20
178.314782
 30
0.0
  0
VERTEX
  8
132
  6
CONTINUOUS
 62
     7
 10
121.832866
 20
178.315421
 30
0.0
  0
VERTEX
  8
132
  6
CONTINUOUS
 62
     7
 10
121.828664
 20
178.31606
 30
0.0
  0
VERTEX
  8
132
  6
CONTINUOUS
 62
     7
 10
121.824489
 20
178.3167
 30
0.0
  0
VERTEX
  8
132
  6
CONTINUOUS
 62
     7
 10
121.820341
 20
178.317341
 30
0.0
  0
VERTEX
  8
132
  6
CONTINUOUS
 62
     7
 10
121.816219
 20
178.317983
 30
0.0
  0
VERTEX
  8
132
  6
CONTINUOUS
 62
     7
 10
121.812122
 20
178.318626
 30
0.0
  0
VERTEX
  8
132
  6
CONTINUOUS
 62
     7
 10
121.808056
 20
178.31927
 30
0.0
  0
VERTEX
  8
132
  6
CONTINUOUS
 62
     7
 10
121.804019
 20
178.319915
 30
0.0
  0
VERTEX
  8
132
  6
CONTINUOUS
 62
     7
 10
121.8
 20
178.32056
 30
0.0
  0
SEQEND
  0
POLYLINE
  8
132
  6
CONTINUOUS
 62
     7
 66
     1
  0
VERTEX
  8
132
  6
CONTINUOUS
 62
     7
 10
121.518709
 20
178.397445
 30
0.0
  0
VERTEX
  8
132
  6
CONTINUOUS
 62
     7
 10
121.516428
 20
178.399135
 30
0.0
  0
VERTEX
  8
132
  6
CONTINUOUS
 62
     7
 10
121.514247
 20
178.400824
 30
0.0
  0
VERTEX
  8
132
  6
CONTINUOUS
 62
     7
 10
121.512242
 20
178.402509
 30
0.0
  0
VERTEX
  8
132
  6
CONTINUOUS
 62
     7
 10
121.510409
 20
178.40419
 30
0.0
  0
VERTEX
  8
132
  6
CONTINUOUS
 62
     7
 10
121.508724
 20
178.405867
 30
0.0
  0
VERTEX
  8
132
  6
CONTINUOUS
 62
     7
 10
121.507188
 20
178.407541
 30
0.0
  0
VERTEX
  8
132
  6
CONTINUOUS
 62
     7
 10
121.505805
 20
178.409212
 30
0.0
  0
VERTEX
  8
132
  6
CONTINUOUS
 62
     7
 10
121.504574
 20
178.410878
 30
0.0
  0
VERTEX
  8
132
  6
CONTINUOUS
 62
     7
 10
121.503491
 20
178.41254
 30
0.0
  0
VERTEX
  8
132
  6
CONTINUOUS
 62
     7
 10
121.502558
 20
178.414199
 30
0.0
  0
VERTEX
  8
132
  6
CONTINUOUS
 62
     7
 10
121.501773
 20
178.415852
 30
0.0
  0
VERTEX
  8
132
  6
CONTINUOUS
 62
     7
 10
121.50113
 20
178.417502
 30
0.0
  0
VERTEX
  8
132
  6
CONTINUOUS
 62
     7
 10
121.500627
 20
178.419147
 30
0.0
  0
VERTEX
  8
132
  6
CONTINUOUS
 62
     7
 10
121.500281
 20
178.420787
 30
0.0
  0
VERTEX
  8
132
  6
CONTINUOUS
 62
     7
 10
121.500096
 20
178.422421
 30
0.0
  0
VERTEX
  8
132
  6
CONTINUOUS
 62
     7
 10
121.5
 20
178.424052
 30
0.0
  0
SEQEND
  0
POLYLINE
  8
132
  6
CONTINUOUS
 62
     7
 66
     1
  0
VERTEX
  8
132
  6
CONTINUOUS
 62
     7
 10
126.5
 20
178.424052
 30
0.0
  0
VERTEX
  8
132
  6
CONTINUOUS
 62
     7
 10
126.486284
 20
178.40434
 30
0.0
  0
VERTEX
  8
132
  6
CONTINUOUS
 62
     7
 10
126.458263
 20
178.384404
 30
0.0
  0
VERTEX
  8
132
  6
CONTINUOUS
 62
     7
 10
126.404431
 20
178.364132
 30
0.0
  0
VERTEX
  8
132
  6
CONTINUOUS
 62
     7
 10
126.324471
 20
178.343848
 30
0.0
  0
VERTEX
  8
132
  6
CONTINUOUS
 62
     7
 10
126.220414
 20
178.323967
 30
0.0
  0
VERTEX
  8
132
  6
CONTINUOUS
 62
     7
 10
126.092489
 20
178.304821
 30
0.0
  0
VERTEX
  8
132
  6
CONTINUOUS
 62
     7
 10
125.940926
 20
178.286723
 30
0.0
  0
VERTEX
  8
132
  6
CONTINUOUS
 62
     7
 10
125.767767
 20
178.269981
 30
0.0
  0
VERTEX
  8
132
  6
CONTINUOUS
 62
     7
 10
125.575679
 20
178.254889
 30
0.0
  0
VERTEX
  8
132
  6
CONTINUOUS
 62
     7
 10
125.368024
 20
178.24168
 30
0.0
  0
VERTEX
  8
132
  6
CONTINUOUS
 62
     7
 10
125.14835
 20
178.23053
 30
0.0
  0
VERTEX
  8
132
  6
CONTINUOUS
 62
     7
 10
124.920237
 20
178.221461
 30
0.0
  0
VERTEX
  8
132
  6
CONTINUOUS
 62
     7
 10
124.687505
 20
178.214492
 30
0.0
  0
VERTEX
  8
132
  6
CONTINUOUS
 62
     7
 10
124.454908
 20
178.2098
 30
0.0
  0
VERTEX
  8
132
  6
CONTINUOUS
 62
     7
 10
124.226174
 20
178.207358
 30
0.0
  0
VERTEX
  8
132
  6
CONTINUOUS
 62
     7
 10
124.0
 20
178.206163
 30
0.0
  0
SEQEND
  0
POLYLINE
  8
132
  6
CONTINUOUS
 62
     7
 66
     1
  0
VERTEX
  8
132
  6
CONTINUOUS
 62
     7
 10
126.333064
 20
177.843797
 30
0.0
  0
VERTEX
  8
132
  6
CONTINUOUS
 62
     7
 10
126.248778
 20
177.846268
 30
0.0
  0
VERTEX
  8
132
  6
CONTINUOUS
 62
     7
 10
126.16441
 20
177.848628
 30
0.0
  0
VERTEX
  8
132
  6
CONTINUOUS
 62
     7
 10
126.079908
 20
177.85079
 30
0.0
  0
VERTEX
  8
132
  6
CONTINUOUS
 62
     7
 10
125.995349
 20
177.852761
 30
0.0
  0
VERTEX
  8
132
  6
CONTINUOUS
 62
     7
 10
125.910829
 20
177.854566
 30
0.0
  0
VERTEX
  8
132
  6
CONTINUOUS
 62
     7
 10
125.826409
 20
177.856205
 30
0.0
  0
VERTEX
  8
132
  6
CONTINUOUS
 62
     7
 10
125.742143
 20
177.857674
 30
0.0
  0
VERTEX
  8
132
  6
CONTINUOUS
 62
     7
 10
125.65809
 20
177.858976
 30
0.0
  0
VERTEX
  8
132
  6
CONTINUOUS
 62
     7
 10
125.57431
 20
177.860115
 30
0.0
  0
VERTEX
  8
132
  6
CONTINUOUS
 62
     7
 10
125.490865
 20
177.861092
 30
0.0
  0
VERTEX
  8
132
  6
CONTINUOUS
 62
     7
 10
125.407811
 20
177.861908
 30
0.0
  0
VERTEX
  8
132
  6
CONTINUOUS
 62
     7
 10
125.325176
 20
177.862573
 30
0.0
  0
VERTEX
  8
132
  6
CONTINUOUS
 62
     7
 10
125.243003
 20
177.863089
 30
0.0
  0
VERTEX
  8
132
  6
CONTINUOUS
 62
     7
 10
125.16143
 20
177.863443
 30
0.0
  0
VERTEX
  8
132
  6
CONTINUOUS
 62
     7
 10
125.080525
 20
177.863631
 30
0.0
  0
VERTEX
  8
132
  6
CONTINUOUS
 62
     7
 10
125.0
 20
177.863727
 30
0.0
  0
SEQEND
  0
POLYLINE
  8
132
  6
CONTINUOUS
 62
     7
 66
     1
  0
VERTEX
  8
132
  6
CONTINUOUS
 62
     7
 10
123.666936
 20
177.843797
 30
0.0
  0
VERTEX
  8
132
  6
CONTINUOUS
 62
     7
 10
123.751222
 20
177.846268
 30
0.0
  0
VERTEX
  8
132
  6
CONTINUOUS
 62
     7
 10
123.83559
 20
177.848628
 30
0.0
  0
VERTEX
  8
132
  6
CONTINUOUS
 62
     7
 10
123.920092
 20
177.85079
 30
0.0
  0
VERTEX
  8
132
  6
CONTINUOUS
 62
     7
 10
124.004651
 20
177.852761
 30
0.0
  0
VERTEX
  8
132
  6
CONTINUOUS
 62
     7
 10
124.089171
 20
177.854566
 30
0.0
  0
VERTEX
  8
132
  6
CONTINUOUS
 62
     7
 10
124.173591
 20
177.856205
 30
0.0
  0
VERTEX
  8
132
  6
CONTINUOUS
 62
     7
 10
124.257857
 20
177.857674
 30
0.0
  0
VERTEX
  8
132
  6
CONTINUOUS
 62
     7
 10
124.34191
 20
177.858976
 30
0.0
  0
VERTEX
  8
132
  6
CONTINUOUS
 62
     7
 10
124.42569
 20
177.860115
 30
0.0
  0
VERTEX
  8
132
  6
CONTINUOUS
 62
     7
 10
124.509135
 20
177.861092
 30
0.0
  0
VERTEX
  8
132
  6
CONTINUOUS
 62
     7
 10
124.592189
 20
177.861908
 30
0.0
  0
VERTEX
  8
132
  6
CONTINUOUS
 62
     7
 10
124.674824
 20
177.862573
 30
0.0
  0
VERTEX
  8
132
  6
CONTINUOUS
 62
     7
 10
124.756997
 20
177.863089
 30
0.0
  0
VERTEX
  8
132
  6
CONTINUOUS
 62
     7
 10
124.83857
 20
177.863443
 30
0.0
  0
VERTEX
  8
132
  6
CONTINUOUS
 62
     7
 10
124.919475
 20
177.863631
 30
0.0
  0
VERTEX
  8
132
  6
CONTINUOUS
 62
     7
 10
125.0
 20
177.863727
 30
0.0
  0
SEQEND
  0
POLYLINE
  8
132
  6
CONTINUOUS
 62
     7
 66
     1
  0
VERTEX
  8
132
  6
CONTINUOUS
 62
     7
 10
126.52978
 20
178.136082
 30
0.0
  0
VERTEX
  8
132
  6
CONTINUOUS
 62
     7
 10
126.433818
 20
178.139372
 30
0.0
  0
VERTEX
  8
132
  6
CONTINUOUS
 62
     7
 10
126.337627
 20
178.142514
 30
0.0
  0
VERTEX
  8
132
  6
CONTINUOUS
 62
     7
 10
126.241046
 20
178.145393
 30
0.0
  0
VERTEX
  8
132
  6
CONTINUOUS
 62
     7
 10
126.144199
 20
178.148018
 30
0.0
  0
VERTEX
  8
132
  6
CONTINUOUS
 62
     7
 10
126.047259
 20
178.150421
 30
0.0
  0
VERTEX
  8
132
  6
CONTINUOUS
 62
     7
 10
125.95032
 20
178.152603
 30
0.0
  0
VERTEX
  8
132
  6
CONTINUOUS
 62
     7
 10
125.853462
 20
178.154558
 30
0.0
  0
VERTEX
  8
132
  6
CONTINUOUS
 62
     7
 10
125.756778
 20
178.156289
 30
0.0
  0
VERTEX
  8
132
  6
CONTINUOUS
 62
     7
 10
125.660363
 20
178.157802
 30
0.0
  0
VERTEX
  8
132
  6
CONTINUOUS
 62
     7
 10
125.564313
 20
178.159098
 30
0.0
  0
VERTEX
  8
132
  6
CONTINUOUS
 62
     7
 10
125.468714
 20
178.160181
 30
0.0
  0
VERTEX
  8
132
  6
CONTINUOUS
 62
     7
 10
125.373616
 20
178.161061
 30
0.0
  0
VERTEX
  8
132
  6
CONTINUOUS
 62
     7
 10
125.279088
 20
178.161744
 30
0.0
  0
VERTEX
  8
132
  6
CONTINUOUS
 62
     7
 10
125.18532
 20
178.162211
 30
0.0
  0
VERTEX
  8
132
  6
CONTINUOUS
 62
     7
 10
125.092415
 20
178.162459
 30
0.0
  0
VERTEX
  8
132
  6
CONTINUOUS
 62
     7
 10
125.0
 20
178.162585
 30
0.0
  0
SEQEND
  0
POLYLINE
  8
132
  6
CONTINUOUS
 62
     7
 66
     1
  0
VERTEX
  8
132
  6
CONTINUOUS
 62
     7
 10
123.47022
 20
178.136082
 30
0.0
  0
VERTEX
  8
132
  6
CONTINUOUS
 62
     7
 10
123.566182
 20
178.139372
 30
0.0
  0
VERTEX
  8
132
  6
CONTINUOUS
 62
     7
 10
123.662373
 20
178.142514
 30
0.0
  0
VERTEX
  8
132
  6
CONTINUOUS
 62
     7
 10
123.758954
 20
178.145393
 30
0.0
  0
VERTEX
  8
132
  6
CONTINUOUS
 62
     7
 10
123.855801
 20
178.148018
 30
0.0
  0
VERTEX
  8
132
  6
CONTINUOUS
 62
     7
 10
123.952741
 20
178.150421
 30
0.0
  0
VERTEX
  8
132
  6
CONTINUOUS
 62
     7
 10
124.04968
 20
178.152603
 30
0.0
  0
VERTEX
  8
132
  6
CONTINUOUS
 62
     7
 10
124.146538
 20
178.154558
 30
0.0
  0
VERTEX
  8
132
  6
CONTINUOUS
 62
     7
 10
124.243222
 20
178.156289
 30
0.0
  0
VERTEX
  8
132
  6
CONTINUOUS
 62
     7
 10
124.339637
 20
178.157802
 30
0.0
  0
VERTEX
  8
132
  6
CONTINUOUS
 62
     7
 10
124.435687
 20
178.159098
 30
0.0
  0
VERTEX
  8
132
  6
CONTINUOUS
 62
     7
 10
124.531286
 20
178.160181
 30
0.0
  0
VERTEX
  8
132
  6
CONTINUOUS
 62
     7
 10
124.626384
 20
178.161061
 30
0.0
  0
VERTEX
  8
132
  6
CONTINUOUS
 62
     7
 10
124.720912
 20
178.161744
 30
0.0
  0
VERTEX
  8
132
  6
CONTINUOUS
 62
     7
 10
124.81468
 20
178.162211
 30
0.0
  0
VERTEX
  8
132
  6
CONTINUOUS
 62
     7
 10
124.907585
 20
178.162459
 30
0.0
  0
VERTEX
  8
132
  6
CONTINUOUS
 62
     7
 10
125.0
 20
178.162585
 30
0.0
  0
SEQEND
  0
POLYLINE
  8
132
  6
CONTINUOUS
 62
     7
 66
     1
  0
VERTEX
  8
132
  6
CONTINUOUS
 62
     7
 10
125.0
 20
177.465339
 30
0.0
  0
VERTEX
  8
132
  6
CONTINUOUS
 62
     7
 10
124.922675
 20
177.465428
 30
0.0
  0
VERTEX
  8
132
  6
CONTINUOUS
 62
     7
 10
124.844998
 20
177.465601
 30
0.0
  0
VERTEX
  8
132
  6
CONTINUOUS
 62
     7
 10
124.766701
 20
177.465926
 30
0.0
  0
VERTEX
  8
132
  6
CONTINUOUS
 62
     7
 10
124.687846
 20
177.466402
 30
0.0
  0
VERTEX
  8
132
  6
CONTINUOUS
 62
     7
 10
124.608557
 20
177.467014
 30
0.0
  0
VERTEX
  8
132
  6
CONTINUOUS
 62
     7
 10
124.528872
 20
177.467766
 30
0.0
  0
VERTEX
  8
132
  6
CONTINUOUS
 62
     7
 10
124.448816
 20
177.468664
 30
0.0
  0
VERTEX
  8
132
  6
CONTINUOUS
 62
     7
 10
124.368436
 20
177.469712
 30
0.0
  0
VERTEX
  8
132
  6
CONTINUOUS
 62
     7
 10
124.287788
 20
177.470909
 30
0.0
  0
VERTEX
  8
132
  6
CONTINUOUS
 62
     7
 10
124.206924
 20
177.47226
 30
0.0
  0
VERTEX
  8
132
  6
CONTINUOUS
 62
     7
 10
124.125895
 20
177.473767
 30
0.0
  0
VERTEX
  8
132
  6
CONTINUOUS
 62
     7
 10
124.04475
 20
177.475426
 30
0.0
  0
VERTEX
  8
132
  6
CONTINUOUS
 62
     7
 10
123.963542
 20
177.477237
 30
0.0
  0
VERTEX
  8
132
  6
CONTINUOUS
 62
     7
 10
123.882353
 20
177.479224
 30
0.0
  0
VERTEX
  8
132
  6
CONTINUOUS
 62
     7
 10
123.801247
 20
177.481393
 30
0.0
  0
VERTEX
  8
132
  6
CONTINUOUS
 62
     7
 10
123.720195
 20
177.483665
 30
0.0
  0
SEQEND
  0
POLYLINE
  8
132
  6
CONTINUOUS
 62
     7
 66
     1
  0
VERTEX
  8
132
  6
CONTINUOUS
 62
     7
 10
126.279805
 20
177.483665
 30
0.0
  0
VERTEX
  8
132
  6
CONTINUOUS
 62
     7
 10
126.198753
 20
177.481393
 30
0.0
  0
VERTEX
  8
132
  6
CONTINUOUS
 62
     7
 10
126.117647
 20
177.479224
 30
0.0
  0
VERTEX
  8
132
  6
CONTINUOUS
 62
     7
 10
126.036458
 20
177.477237
 30
0.0
  0
VERTEX
  8
132
  6
CONTINUOUS
 62
     7
 10
125.95525
 20
177.475426
 30
0.0
  0
VERTEX
  8
132
  6
CONTINUOUS
 62
     7
 10
125.874105
 20
177.473767
 30
0.0
  0
VERTEX
  8
132
  6
CONTINUOUS
 62
     7
 10
125.793076
 20
177.47226
 30
0.0
  0
VERTEX
  8
132
  6
CONTINUOUS
 62
     7
 10
125.712212
 20
177.470909
 30
0.0
  0
VERTEX
  8
132
  6
CONTINUOUS
 62
     7
 10
125.631564
 20
177.469712
 30
0.0
  0
VERTEX
  8
132
  6
CONTINUOUS
 62
     7
 10
125.551184
 20
177.468664
 30
0.0
  0
VERTEX
  8
132
  6
CONTINUOUS
 62
     7
 10
125.471128
 20
177.467766
 30
0.0
  0
VERTEX
  8
132
  6
CONTINUOUS
 62
     7
 10
125.391443
 20
177.467014
 30
0.0
  0
VERTEX
  8
132
  6
CONTINUOUS
 62
     7
 10
125.312154
 20
177.466402
 30
0.0
  0
VERTEX
  8
132
  6
CONTINUOUS
 62
     7
 10
125.233299
 20
177.465926
 30
0.0
  0
VERTEX
  8
132
  6
CONTINUOUS
 62
     7
 10
125.155002
 20
177.465601
 30
0.0
  0
VERTEX
  8
132
  6
CONTINUOUS
 62
     7
 10
125.077325
 20
177.465428
 30
0.0
  0
VERTEX
  8
132
  6
CONTINUOUS
 62
     7
 10
125.0
 20
177.465339
 30
0.0
  0
SEQEND
  0
LINE
  8
132
  6
CONTINUOUS
 62
     7
 10
112.5
 20
176.826
 30
0.0
 11
137.5
 21
176.826
 31
0.0
  0
LINE
  8
132
  6
CONTINUOUS
 62
     7
 10
128.5
 20
177.126
 30
0.0
 11
121.5
 21
177.126
 31
0.0
  0
CIRCLE
  8
132
  6
CONTINUOUS
 62
     7
 10
125.0
 20
166.826
 30
0.0
 40
3.0
  0
LINE
  8
132
  6
CONTINUOUS
 62
     7
 10
134.5
 20
159.826
 30
0.0
 11
115.5
 21
159.826
 31
0.0
  0
LINE
  8
132
  6
CONTINUOUS
 62
     7
 10
134.5
 20
159.826
 30
0.0
 11
137.5
 21
162.826
 31
0.0
  0
LINE
  8
132
  6
CONTINUOUS
 62
     7
 10
112.5
 20
162.826
 30
0.0
 11
115.5
 21
159.826
 31
0.0
  0
LINE
  8
132
  6
CONTINUOUS
 62
     7
 10
137.5
 20
186.826
 30
0.0
 11
137.5
 21
162.826
 31
0.0
  0
LINE
  8
132
  6
CONTINUOUS
 62
     7
 10
112.5
 20
186.826
 30
0.0
 11
112.5
 21
162.826
 31
0.0
  0
LINE
  8
0
  6
LTYPE1
 62
     2
 10
142.5
 20
166.826
 30
0.0
 11
107.5
 21
166.826
 31
0.0
  0
CIRCLE
  8
0
  6
CONTINUOUS
 62
     7
 10
125.0
 20
166.826
 30
0.0
 40
2.5
  0
LINE
  8
0
  6
LTYPE1
 62
     2
 10
125.0
 20
18.0
 30
0.0
 11
125.0
 21
196.826
 31
0.0
  0
LINE
  8
0
  6
LTYPE1
 62
     2
 10
245.0
 20
149.826
 30
0.0
 11
245.0
 21
69.0
 31
0.0
  0
LINE
  8
0
  6
LTYPE1
 62
     2
 10
133.0
 20
112.5
 30
0.0
 11
133.0
 21
144.826
 31
0.0
  0
LINE
  8
0
  6
LTYPE1
 62
     2
 10
117.0
 20
112.5
 30
0.0
 11
117.0
 21
144.826
 31
0.0
  0
LINE
  8
0
  6
LTYPE1
 62
     2
 10
60.0
 20
112.5
 30
0.0
 11
60.0
 21
144.826
 31
0.0
  0
LINE
  8
0
  6
LTYPE1
 62
     2
 10
190.0
 20
112.5
 30
0.0
 11
190.0
 21
144.826
 31
0.0
  0
LINE
  8
0
  6
LTYPE1
 62
     2
 10
237.0
 20
112.5
 30
0.0
 11
237.0
 21
144.826
 31
0.0
  0
LINE
  8
0
  6
LTYPE1
 62
     2
 10
253.0
 20
112.5
 30
0.0
 11
253.0
 21
144.826
 31
0.0
  0
TEXT
  8
0
  6
CONTINUOUS
 62
     1
 10
213.0
 20
7.0
 30
0.6
 40
6.0
  1
Ｇ０００－６５５－０１８
 50
0.0
 41
0.9
 51
0.0
  7
KANJI0
  0
TEXT
  8
0
  6
CONTINUOUS
 62
     1
 10
198.0
 20
7.0
 30
0.0
 40
6.0
  1
ｔｙｐｅ
 50
0.0
 41
0.5
 51
0.0
  7
KANJI1
  0
LINE
  8
0
  6
LTYPE2
 62
     2
 10
72.0
 20
80.0
 30
0.0
 11
72.0
 21
75.0
 31
0.0
  0
LINE
  8
0
  6
LTYPE2
 62
     2
 10
72.5
 20
80.0
 30
0.0
 11
72.5
 21
75.0
 31
0.0
  0
LINE
  8
0
  6
LTYPE2
 62
     2
 10
78.0
 20
80.0
 30
0.0
 11
78.0
 21
75.0
 31
0.0
  0
LINE
  8
0
  6
LTYPE2
 62
     2
 10
77.5
 20
80.0
 30
0.0
 11
77.5
 21
75.0
 31
0.0
  0
LINE
  8
0
  6
LTYPE2
 62
     2
 10
122.0
 20
80.0
 30
0.0
 11
122.0
 21
75.0
 31
0.0
  0
LINE
  8
0
  6
LTYPE2
 62
     2
 10
122.5
 20
80.0
 30
0.0
 11
122.5
 21
75.0
 31
0.0
  0
LINE
  8
0
  6
LTYPE2
 62
     2
 10
128.0
 20
80.0
 30
0.0
 11
128.0
 21
75.0
 31
0.0
  0
LINE
  8
0
  6
LTYPE2
 62
     2
 10
127.5
 20
80.0
 30
0.0
 11
127.5
 21
75.0
 31
0.0
  0
LINE
  8
0
  6
LTYPE2
 62
     2
 10
178.0
 20
80.0
 30
0.0
 11
178.0
 21
75.0
 31
0.0
  0
LINE
  8
0
  6
LTYPE2
 62
     2
 10
177.5
 20
80.0
 30
0.0
 11
177.5
 21
75.0
 31
0.0
  0
LINE
  8
0
  6
LTYPE2
 62
     2
 10
172.0
 20
80.0
 30
0.0
 11
172.0
 21
75.0
 31
0.0
  0
LINE
  8
0
  6
LTYPE2
 62
     2
 10
172.5
 20
80.0
 30
0.0
 11
172.5
 21
75.0
 31
0.0
  0
LINE
  8
0
  6
LTYPE2
 62
     2
 10
248.0
 20
80.0
 30
0.0
 11
248.0
 21
75.0
 31
0.0
  0
LINE
  8
0
  6
LTYPE2
 62
     2
 10
247.5
 20
80.0
 30
0.0
 11
247.5
 21
75.0
 31
0.0
  0
LINE
  8
0
  6
LTYPE2
 62
     2
 10
242.0
 20
80.0
 30
0.0
 11
242.0
 21
75.0
 31
0.0
  0
LINE
  8
0
  6
LTYPE2
 62
     2
 10
242.5
 20
80.0
 30
0.0
 11
242.5
 21
75.0
 31
0.0
  0
ENDSEC
  0
EOF
