ISO-10303-21;
HEADER;
/* Generated by software containing ST-Developer
 * from STEP Tools, Inc. (www.steptools.com) 
 */
/* OPTION: using custom schema-name function */

FILE_DESCRIPTION(
/* description */ (''),
/* implementation_level */ '2;1');

FILE_NAME(
/* name */ '2408-009-113-00_AP',
/* time_stamp */ '2009-07-28T09:22:08+02:00',
/* author */ (''),
/* organization */ (''),
/* preprocessor_version */ 'ST-DEVELOPER v9',
/* originating_system */ 'UGS - NX 4.0',
/* authorisation */ '');

FILE_SCHEMA (('AUTOMOTIVE_DESIGN { 1 0 10303 214 1 1 1 1 }'));
ENDSEC;

DATA;
#10=SHAPE_REPRESENTATION_RELATIONSHIP('None',
'relationship between pant3010h96t-None and pant3010h96t-None',#22,#11);
#11=ADVANCED_BREP_SHAPE_REPRESENTATION('pant3010h96t-None',(#32),#359);
#12=SHAPE_DEFINITION_REPRESENTATION(#13,#22);
#13=PRODUCT_DEFINITION_SHAPE('','',#14);
#14=PRODUCT_DEFINITION(' ','',#16,#15);
#15=PRODUCT_DEFINITION_CONTEXT('part definition',#21,'design');
#16=PRODUCT_DEFINITION_FORMATION_WITH_SPECIFIED_SOURCE(' ',' ',#18,.NOT_KNOWN.);
#17=PRODUCT_RELATED_PRODUCT_CATEGORY('part','',(#18));
#18=PRODUCT('pant3010h96t','pant3010h96t',' ',(#19));
#19=PRODUCT_CONTEXT(' ',#21,'mechanical');
#20=APPLICATION_PROTOCOL_DEFINITION('international standard',
'automotive_design',2001,#21);
#21=APPLICATION_CONTEXT(
'core data for automotive mechanical design processes');
#22=SHAPE_REPRESENTATION('pant3010h96t-None',(#210),#359);
#23=PRESENTATION_LAYER_ASSIGNMENT('100','Layer 100',(#32));
#24=STYLED_ITEM('',(#25),#32);
#25=PRESENTATION_STYLE_ASSIGNMENT((#26));
#26=SURFACE_STYLE_USAGE(.BOTH.,#27);
#27=SURFACE_SIDE_STYLE('',(#28));
#28=SURFACE_STYLE_FILL_AREA(#29);
#29=FILL_AREA_STYLE('',(#30));
#30=FILL_AREA_STYLE_COLOUR('',#31);
#31=COLOUR_RGB('Light Hard Green',0.2,1.,0.2);
#32=MANIFOLD_SOLID_BREP('',#33);
#33=CLOSED_SHELL('',(#46,#47,#48,#49,#50,#51,#52,#53,#54,#55,#56,#57,#58,
#59,#60,#61));
#34=CONICAL_SURFACE('',#221,21.95,60.);
#35=CONICAL_SURFACE('',#225,22.5,60.);
#36=CONICAL_SURFACE('',#231,21.25,14.9999999999999);
#37=CONICAL_SURFACE('',#239,22.6,59.9999999999993);
#38=CONICAL_SURFACE('',#242,22.094,60.);
#39=CYLINDRICAL_SURFACE('',#215,23.75);
#40=CYLINDRICAL_SURFACE('',#219,21.95);
#41=CYLINDRICAL_SURFACE('',#223,22.5);
#42=CYLINDRICAL_SURFACE('',#229,21.25);
#43=CYLINDRICAL_SURFACE('',#233,22.);
#44=CYLINDRICAL_SURFACE('',#237,22.6);
#45=CYLINDRICAL_SURFACE('',#241,22.094);
#46=ADVANCED_FACE('',(#89,#66),#62,.F.);
#47=ADVANCED_FACE('',(#67,#68),#39,.T.);
#48=ADVANCED_FACE('',(#69,#90),#63,.F.);
#49=ADVANCED_FACE('',(#70,#71),#40,.T.);
#50=ADVANCED_FACE('',(#91,#72),#34,.T.);
#51=ADVANCED_FACE('',(#73,#74),#41,.T.);
#52=ADVANCED_FACE('',(#75,#92),#35,.T.);
#53=ADVANCED_FACE('',(#76,#93),#64,.F.);
#54=ADVANCED_FACE('',(#77,#78),#42,.F.);
#55=ADVANCED_FACE('',(#94,#79),#36,.F.);
#56=ADVANCED_FACE('',(#80,#81),#43,.F.);
#57=ADVANCED_FACE('',(#95,#82),#65,.F.);
#58=ADVANCED_FACE('',(#83,#84),#44,.F.);
#59=ADVANCED_FACE('',(#85,#96),#37,.F.);
#60=ADVANCED_FACE('',(#86,#87),#45,.F.);
#61=ADVANCED_FACE('',(#97,#88),#38,.F.);
#62=PLANE('',#213);
#63=PLANE('',#217);
#64=PLANE('',#227);
#65=PLANE('',#235);
#66=FACE_BOUND('',#99,.T.);
#67=FACE_BOUND('',#100,.T.);
#68=FACE_BOUND('',#101,.T.);
#69=FACE_BOUND('',#102,.T.);
#70=FACE_BOUND('',#104,.T.);
#71=FACE_BOUND('',#105,.T.);
#72=FACE_BOUND('',#107,.T.);
#73=FACE_BOUND('',#108,.T.);
#74=FACE_BOUND('',#109,.T.);
#75=FACE_BOUND('',#110,.T.);
#76=FACE_BOUND('',#112,.T.);
#77=FACE_BOUND('',#114,.T.);
#78=FACE_BOUND('',#115,.T.);
#79=FACE_BOUND('',#117,.T.);
#80=FACE_BOUND('',#118,.T.);
#81=FACE_BOUND('',#119,.T.);
#82=FACE_BOUND('',#121,.T.);
#83=FACE_BOUND('',#122,.T.);
#84=FACE_BOUND('',#123,.T.);
#85=FACE_BOUND('',#124,.T.);
#86=FACE_BOUND('',#126,.T.);
#87=FACE_BOUND('',#127,.T.);
#88=FACE_BOUND('',#129,.T.);
#89=FACE_OUTER_BOUND('',#98,.T.);
#90=FACE_OUTER_BOUND('',#103,.T.);
#91=FACE_OUTER_BOUND('',#106,.T.);
#92=FACE_OUTER_BOUND('',#111,.T.);
#93=FACE_OUTER_BOUND('',#113,.T.);
#94=FACE_OUTER_BOUND('',#116,.T.);
#95=FACE_OUTER_BOUND('',#120,.T.);
#96=FACE_OUTER_BOUND('',#125,.T.);
#97=FACE_OUTER_BOUND('',#128,.T.);
#98=EDGE_LOOP('',(#130));
#99=EDGE_LOOP('',(#131));
#100=EDGE_LOOP('',(#132));
#101=EDGE_LOOP('',(#133));
#102=EDGE_LOOP('',(#134));
#103=EDGE_LOOP('',(#135));
#104=EDGE_LOOP('',(#136));
#105=EDGE_LOOP('',(#137));
#106=EDGE_LOOP('',(#138));
#107=EDGE_LOOP('',(#139));
#108=EDGE_LOOP('',(#140));
#109=EDGE_LOOP('',(#141));
#110=EDGE_LOOP('',(#142));
#111=EDGE_LOOP('',(#143));
#112=EDGE_LOOP('',(#144));
#113=EDGE_LOOP('',(#145));
#114=EDGE_LOOP('',(#146));
#115=EDGE_LOOP('',(#147));
#116=EDGE_LOOP('',(#148));
#117=EDGE_LOOP('',(#149));
#118=EDGE_LOOP('',(#150));
#119=EDGE_LOOP('',(#151));
#120=EDGE_LOOP('',(#152));
#121=EDGE_LOOP('',(#153));
#122=EDGE_LOOP('',(#154));
#123=EDGE_LOOP('',(#155));
#124=EDGE_LOOP('',(#156));
#125=EDGE_LOOP('',(#157));
#126=EDGE_LOOP('',(#158));
#127=EDGE_LOOP('',(#159));
#128=EDGE_LOOP('',(#160));
#129=EDGE_LOOP('',(#161));
#130=ORIENTED_EDGE('',*,*,#178,.F.);
#131=ORIENTED_EDGE('',*,*,#179,.T.);
#132=ORIENTED_EDGE('',*,*,#180,.F.);
#133=ORIENTED_EDGE('',*,*,#178,.T.);
#134=ORIENTED_EDGE('',*,*,#181,.F.);
#135=ORIENTED_EDGE('',*,*,#180,.T.);
#136=ORIENTED_EDGE('',*,*,#182,.F.);
#137=ORIENTED_EDGE('',*,*,#181,.T.);
#138=ORIENTED_EDGE('',*,*,#183,.F.);
#139=ORIENTED_EDGE('',*,*,#182,.T.);
#140=ORIENTED_EDGE('',*,*,#184,.F.);
#141=ORIENTED_EDGE('',*,*,#183,.T.);
#142=ORIENTED_EDGE('',*,*,#185,.F.);
#143=ORIENTED_EDGE('',*,*,#184,.T.);
#144=ORIENTED_EDGE('',*,*,#186,.F.);
#145=ORIENTED_EDGE('',*,*,#185,.T.);
#146=ORIENTED_EDGE('',*,*,#187,.F.);
#147=ORIENTED_EDGE('',*,*,#186,.T.);
#148=ORIENTED_EDGE('',*,*,#188,.F.);
#149=ORIENTED_EDGE('',*,*,#187,.T.);
#150=ORIENTED_EDGE('',*,*,#189,.F.);
#151=ORIENTED_EDGE('',*,*,#188,.T.);
#152=ORIENTED_EDGE('',*,*,#190,.F.);
#153=ORIENTED_EDGE('',*,*,#189,.T.);
#154=ORIENTED_EDGE('',*,*,#191,.F.);
#155=ORIENTED_EDGE('',*,*,#190,.T.);
#156=ORIENTED_EDGE('',*,*,#192,.F.);
#157=ORIENTED_EDGE('',*,*,#191,.T.);
#158=ORIENTED_EDGE('',*,*,#193,.F.);
#159=ORIENTED_EDGE('',*,*,#192,.T.);
#160=ORIENTED_EDGE('',*,*,#179,.F.);
#161=ORIENTED_EDGE('',*,*,#193,.T.);
#162=VERTEX_POINT('',#311);
#163=VERTEX_POINT('',#313);
#164=VERTEX_POINT('',#316);
#165=VERTEX_POINT('',#319);
#166=VERTEX_POINT('',#322);
#167=VERTEX_POINT('',#325);
#168=VERTEX_POINT('',#328);
#169=VERTEX_POINT('',#331);
#170=VERTEX_POINT('',#334);
#171=VERTEX_POINT('',#337);
#172=VERTEX_POINT('',#340);
#173=VERTEX_POINT('',#343);
#174=VERTEX_POINT('',#346);
#175=VERTEX_POINT('',#349);
#176=VERTEX_POINT('',#352);
#177=VERTEX_POINT('',#355);
#178=EDGE_CURVE('',#162,#162,#194,.T.);
#179=EDGE_CURVE('',#163,#163,#195,.T.);
#180=EDGE_CURVE('',#164,#164,#196,.T.);
#181=EDGE_CURVE('',#165,#165,#197,.T.);
#182=EDGE_CURVE('',#166,#166,#198,.T.);
#183=EDGE_CURVE('',#167,#167,#199,.T.);
#184=EDGE_CURVE('',#168,#168,#200,.T.);
#185=EDGE_CURVE('',#169,#169,#201,.T.);
#186=EDGE_CURVE('',#170,#170,#202,.T.);
#187=EDGE_CURVE('',#171,#171,#203,.T.);
#188=EDGE_CURVE('',#172,#172,#204,.T.);
#189=EDGE_CURVE('',#173,#173,#205,.T.);
#190=EDGE_CURVE('',#174,#174,#206,.T.);
#191=EDGE_CURVE('',#175,#175,#207,.T.);
#192=EDGE_CURVE('',#176,#176,#208,.T.);
#193=EDGE_CURVE('',#177,#177,#209,.T.);
#194=CIRCLE('',#211,23.75);
#195=CIRCLE('',#212,22.6);
#196=CIRCLE('',#214,23.75);
#197=CIRCLE('',#216,21.95);
#198=CIRCLE('',#218,21.95);
#199=CIRCLE('',#220,22.5);
#200=CIRCLE('',#222,22.5);
#201=CIRCLE('',#224,21.95);
#202=CIRCLE('',#226,21.25);
#203=CIRCLE('',#228,21.25);
#204=CIRCLE('',#230,22.);
#205=CIRCLE('',#232,22.);
#206=CIRCLE('',#234,22.6);
#207=CIRCLE('',#236,22.6);
#208=CIRCLE('',#238,22.094);
#209=CIRCLE('',#240,22.094);
#210=AXIS2_PLACEMENT_3D('',#309,#243,#244);
#211=AXIS2_PLACEMENT_3D('',#310,#245,#246);
#212=AXIS2_PLACEMENT_3D('',#312,#247,#248);
#213=AXIS2_PLACEMENT_3D('',#314,#249,#250);
#214=AXIS2_PLACEMENT_3D('',#315,#251,#252);
#215=AXIS2_PLACEMENT_3D('',#317,#253,#254);
#216=AXIS2_PLACEMENT_3D('',#318,#255,#256);
#217=AXIS2_PLACEMENT_3D('',#320,#257,#258);
#218=AXIS2_PLACEMENT_3D('',#321,#259,#260);
#219=AXIS2_PLACEMENT_3D('',#323,#261,#262);
#220=AXIS2_PLACEMENT_3D('',#324,#263,#264);
#221=AXIS2_PLACEMENT_3D('',#326,#265,#266);
#222=AXIS2_PLACEMENT_3D('',#327,#267,#268);
#223=AXIS2_PLACEMENT_3D('',#329,#269,#270);
#224=AXIS2_PLACEMENT_3D('',#330,#271,#272);
#225=AXIS2_PLACEMENT_3D('',#332,#273,#274);
#226=AXIS2_PLACEMENT_3D('',#333,#275,#276);
#227=AXIS2_PLACEMENT_3D('',#335,#277,#278);
#228=AXIS2_PLACEMENT_3D('',#336,#279,#280);
#229=AXIS2_PLACEMENT_3D('',#338,#281,#282);
#230=AXIS2_PLACEMENT_3D('',#339,#283,#284);
#231=AXIS2_PLACEMENT_3D('',#341,#285,#286);
#232=AXIS2_PLACEMENT_3D('',#342,#287,#288);
#233=AXIS2_PLACEMENT_3D('',#344,#289,#290);
#234=AXIS2_PLACEMENT_3D('',#345,#291,#292);
#235=AXIS2_PLACEMENT_3D('',#347,#293,#294);
#236=AXIS2_PLACEMENT_3D('',#348,#295,#296);
#237=AXIS2_PLACEMENT_3D('',#350,#297,#298);
#238=AXIS2_PLACEMENT_3D('',#351,#299,#300);
#239=AXIS2_PLACEMENT_3D('',#353,#301,#302);
#240=AXIS2_PLACEMENT_3D('',#354,#303,#304);
#241=AXIS2_PLACEMENT_3D('',#356,#305,#306);
#242=AXIS2_PLACEMENT_3D('',#357,#307,#308);
#243=DIRECTION('',(0.,0.,1.));
#244=DIRECTION('',(1.,0.,0.));
#245=DIRECTION('',(1.,0.,0.));
#246=DIRECTION('',(0.,0.,-1.));
#247=DIRECTION('',(1.,0.,0.));
#248=DIRECTION('',(0.,0.,-1.));
#249=DIRECTION('',(1.,0.,0.));
#250=DIRECTION('',(0.,0.,-1.));
#251=DIRECTION('',(1.,0.,0.));
#252=DIRECTION('',(0.,0.,-1.));
#253=DIRECTION('',(1.,0.,0.));
#254=DIRECTION('',(0.,0.,-1.));
#255=DIRECTION('',(1.,0.,0.));
#256=DIRECTION('',(0.,0.,-1.));
#257=DIRECTION('',(-1.,0.,0.));
#258=DIRECTION('',(0.,0.,1.));
#259=DIRECTION('',(1.,0.,0.));
#260=DIRECTION('',(0.,0.,-1.));
#261=DIRECTION('',(1.,0.,0.));
#262=DIRECTION('',(0.,0.,-1.));
#263=DIRECTION('',(1.,0.,0.));
#264=DIRECTION('',(0.,0.,-1.));
#265=DIRECTION('',(1.,0.,0.));
#266=DIRECTION('',(-6.28021037671054E-17,0.,-1.));
#267=DIRECTION('',(1.,0.,0.));
#268=DIRECTION('',(0.,0.,-1.));
#269=DIRECTION('',(1.,0.,0.));
#270=DIRECTION('',(0.,0.,-1.));
#271=DIRECTION('',(1.,0.,0.));
#272=DIRECTION('',(0.,0.,-1.));
#273=DIRECTION('',(-1.,0.,0.));
#274=DIRECTION('',(1.28530932763047E-17,0.,1.));
#275=DIRECTION('',(1.,0.,0.));
#276=DIRECTION('',(0.,0.,-1.));
#277=DIRECTION('',(-1.,0.,0.));
#278=DIRECTION('',(0.,0.,1.));
#279=DIRECTION('',(1.,0.,0.));
#280=DIRECTION('',(0.,0.,-1.));
#281=DIRECTION('',(1.,0.,0.));
#282=DIRECTION('',(0.,0.,-1.));
#283=DIRECTION('',(1.,0.,0.));
#284=DIRECTION('',(0.,0.,-1.));
#285=DIRECTION('',(-1.,0.,0.));
#286=DIRECTION('',(-2.39934760729315E-17,0.,1.));
#287=DIRECTION('',(1.,0.,0.));
#288=DIRECTION('',(0.,0.,-1.));
#289=DIRECTION('',(1.,0.,0.));
#290=DIRECTION('',(0.,0.,-1.));
#291=DIRECTION('',(1.,0.,0.));
#292=DIRECTION('',(0.,0.,-1.));
#293=DIRECTION('',(1.,0.,0.));
#294=DIRECTION('',(0.,0.,-1.));
#295=DIRECTION('',(1.,0.,0.));
#296=DIRECTION('',(0.,0.,-1.));
#297=DIRECTION('',(1.,0.,0.));
#298=DIRECTION('',(0.,0.,-1.));
#299=DIRECTION('',(1.,0.,0.));
#300=DIRECTION('',(0.,0.,-1.));
#301=DIRECTION('',(1.,0.,0.));
#302=DIRECTION('',(1.97728627085678E-17,0.,-1.));
#303=DIRECTION('',(1.,0.,0.));
#304=DIRECTION('',(0.,0.,-1.));
#305=DIRECTION('',(1.,0.,0.));
#306=DIRECTION('',(0.,0.,-1.));
#307=DIRECTION('',(-1.,0.,0.));
#308=DIRECTION('',(-3.56014194869787E-17,0.,1.));
#309=CARTESIAN_POINT('',(0.,0.,0.));
#310=CARTESIAN_POINT('',(-24.5,0.,0.));
#311=CARTESIAN_POINT('',(-24.5,0.,-23.75));
#312=CARTESIAN_POINT('',(-24.5,0.,0.));
#313=CARTESIAN_POINT('',(-24.5,0.,-22.6));
#314=CARTESIAN_POINT('',(-24.5,0.,22.6));
#315=CARTESIAN_POINT('',(0.,0.,0.));
#316=CARTESIAN_POINT('',(0.,0.,-23.75));
#317=CARTESIAN_POINT('',(22.,0.,0.));
#318=CARTESIAN_POINT('',(0.,0.,0.));
#319=CARTESIAN_POINT('',(0.,0.,-21.95));
#320=CARTESIAN_POINT('',(5.35782974626951E-17,0.,23.75));
#321=CARTESIAN_POINT('',(1.,0.,0.));
#322=CARTESIAN_POINT('',(1.,0.,-21.95));
#323=CARTESIAN_POINT('',(22.,0.,0.));
#324=CARTESIAN_POINT('',(1.3175426480543,0.,0.));
#325=CARTESIAN_POINT('',(1.3175426480543,0.,-22.5));
#326=CARTESIAN_POINT('',(1.,0.,0.));
#327=CARTESIAN_POINT('',(3.6824573519457,0.,0.));
#328=CARTESIAN_POINT('',(3.6824573519457,0.,-22.5));
#329=CARTESIAN_POINT('',(22.,0.,0.));
#330=CARTESIAN_POINT('',(4.,0.,0.));
#331=CARTESIAN_POINT('',(4.,0.,-21.95));
#332=CARTESIAN_POINT('',(3.6824573519457,0.,0.));
#333=CARTESIAN_POINT('',(4.,0.,0.));
#334=CARTESIAN_POINT('',(4.,0.,-21.25));
#335=CARTESIAN_POINT('',(4.,0.,21.95));
#336=CARTESIAN_POINT('',(-11.7009618943233,0.,0.));
#337=CARTESIAN_POINT('',(-11.7009618943233,0.,-21.25));
#338=CARTESIAN_POINT('',(22.,0.,0.));
#339=CARTESIAN_POINT('',(-14.5,0.,0.));
#340=CARTESIAN_POINT('',(-14.5,0.,-22.));
#341=CARTESIAN_POINT('',(-11.7009618943233,0.,0.));
#342=CARTESIAN_POINT('',(-20.5,0.,0.));
#343=CARTESIAN_POINT('',(-20.5,0.,-22.));
#344=CARTESIAN_POINT('',(22.,0.,0.));
#345=CARTESIAN_POINT('',(-20.5,0.,0.));
#346=CARTESIAN_POINT('',(-20.5,0.,-22.6));
#347=CARTESIAN_POINT('',(-20.5,0.,22.));
#348=CARTESIAN_POINT('',(-21.5,0.,0.));
#349=CARTESIAN_POINT('',(-21.5,0.,-22.6));
#350=CARTESIAN_POINT('',(22.,0.,0.));
#351=CARTESIAN_POINT('',(-21.79213923621,0.,0.));
#352=CARTESIAN_POINT('',(-21.79213923621,0.,-22.094));
#353=CARTESIAN_POINT('',(-21.5,0.,0.));
#354=CARTESIAN_POINT('',(-24.20786076379,0.,0.));
#355=CARTESIAN_POINT('',(-24.20786076379,0.,-22.094));
#356=CARTESIAN_POINT('',(22.,0.,0.));
#357=CARTESIAN_POINT('',(-24.20786076379,0.,0.));
#358=MECHANICAL_DESIGN_GEOMETRIC_PRESENTATION_REPRESENTATION('',(#24),#359);
#359=(
GEOMETRIC_REPRESENTATION_CONTEXT(3)
GLOBAL_UNCERTAINTY_ASSIGNED_CONTEXT((#360))
GLOBAL_UNIT_ASSIGNED_CONTEXT((#366,#362,#361))
REPRESENTATION_CONTEXT('2408-009-113-00_AP','TOP_LEVEL_ASSEMBLY_PART')
);
#360=UNCERTAINTY_MEASURE_WITH_UNIT(LENGTH_MEASURE(2.E-05),#366,
'DISTANCE_ACCURACY_VALUE','Maximum Tolerance applied to model');
#361=(
NAMED_UNIT(*)
SI_UNIT($,.STERADIAN.)
SOLID_ANGLE_UNIT()
);
#362=(
CONVERSION_BASED_UNIT('DEGREE',#364)
NAMED_UNIT(#363)
PLANE_ANGLE_UNIT()
);
#363=DIMENSIONAL_EXPONENTS(0.,0.,0.,0.,0.,0.,0.);
#364=PLANE_ANGLE_MEASURE_WITH_UNIT(PLANE_ANGLE_MEASURE(0.0174532925),#365);
#365=(
NAMED_UNIT(*)
PLANE_ANGLE_UNIT()
SI_UNIT($,.RADIAN.)
);
#366=(
LENGTH_UNIT()
NAMED_UNIT(*)
SI_UNIT(.MILLI.,.METRE.)
);
ENDSEC;
END-ISO-10303-21;
